ISO-10303-21;
HEADER;
FILE_DESCRIPTION (( 'STEP AP203' ),
    '1' );
FILE_NAME ('Web Model 48200_36971.step',
    '2019-01-07T15:24:50',
    ( '' ),
    ( '' ),
    'SwSTEP 2.0',
    'SolidWorks 2016',
    '' );
FILE_SCHEMA (( 'CONFIG_CONTROL_DESIGN' ));
ENDSEC;

DATA;
#1 = EDGE_CURVE ( 'NONE', #30, #47, #214, .T. ) ;
#2 = APPROVAL_PERSON_ORGANIZATION ( #67, #124, #176 ) ;
#3 = ORIENTED_EDGE ( 'NONE', *, *, #1, .T. ) ;
#4 = ORIENTED_EDGE ( 'NONE', *, *, #70, .T. ) ;
#5 = CARTESIAN_POINT ( 'NONE',  ( -6.249999999999994700, 6.250000000000012400, 1.000000000000000000 ) ) ;
#6 = ORIENTED_EDGE ( 'NONE', *, *, #52, .T. ) ;
#7 = CARTESIAN_POINT ( 'NONE',  ( 6.250000000000006200, -6.249999999999984900, 1.000000000000000000 ) ) ;
#8 = DIRECTION ( 'NONE',  ( 0.0000000000000000000, -0.0000000000000000000, -1.000000000000000000 ) ) ;
#9 = LOCAL_TIME ( 10, 24, 50.00000000000000000, #153 ) ;
#10 = ADVANCED_FACE ( 'NONE', ( #122 ), #175, .F. ) ;
#11 = FACE_OUTER_BOUND ( 'NONE', #23, .T. ) ;
#12 = DIRECTION ( 'NONE',  ( 0.0000000000000000000, 0.0000000000000000000, 1.000000000000000000 ) ) ;
#13 = SECURITY_CLASSIFICATION ( '', '', #31 ) ;
#14 = ADVANCED_FACE ( 'NONE', ( #22 ), #38, .F. ) ;
#15 = APPLICATION_CONTEXT ( 'configuration controlled 3d designs of mechanical parts and assemblies' ) ;
#16 = CALENDAR_DATE ( 2019, 7, 1 ) ;
#17 = PERSON_AND_ORGANIZATION ( #46, #186 ) ;
#18 = VERTEX_POINT ( 'NONE', #172 ) ;
#19 = APPROVAL_DATE_TIME ( #25, #103 ) ;
#20 = VECTOR ( 'NONE', #26, 1000.000000000000000 ) ;
#21 = CC_DESIGN_DATE_AND_TIME_ASSIGNMENT ( #224, #161, ( #13 ) ) ;
#22 = FACE_OUTER_BOUND ( 'NONE', #199, .T. ) ;
#23 = EDGE_LOOP ( 'NONE', ( #75, #54, #115, #205 ) ) ;
#24 = DIRECTION ( 'NONE',  ( -0.0000000000000000000, -0.0000000000000000000, -1.000000000000000000 ) ) ;
#25 = DATE_AND_TIME ( #71, #9 ) ;
#26 = DIRECTION ( 'NONE',  ( -0.0000000000000000000, -0.0000000000000000000, -1.000000000000000000 ) ) ;
#27 = APPROVAL_DATE_TIME ( #188, #189 ) ;
#28 = CARTESIAN_POINT ( 'NONE',  ( -6.249999999999994700, -6.249999999999984900, 1.000000000000000000 ) ) ;
#29 = PERSON_AND_ORGANIZATION_ROLE ( 'classification_officer' ) ;
#30 = VERTEX_POINT ( 'NONE', #227 ) ;
#31 = SECURITY_CLASSIFICATION_LEVEL ( 'unclassified' ) ;
#32 = PERSON_AND_ORGANIZATION_ROLE ( 'creator' ) ;
#33 = LINE ( 'NONE', #62, #221 ) ;
#34 = ORIENTED_EDGE ( 'NONE', *, *, #126, .T. ) ;
#35 = FACE_OUTER_BOUND ( 'NONE', #93, .T. ) ;
#36 = PLANE ( 'NONE',  #185 ) ;
#37 = PLANE ( 'NONE',  #210 ) ;
#38 = PLANE ( 'NONE',  #73 ) ;
#39 = VECTOR ( 'NONE', #132, 1000.000000000000000 ) ;
#40 = CARTESIAN_POINT ( 'NONE',  ( 6.250000000000006200, -6.249999999999984900, 1.000000000000000000 ) ) ;
#41 = AXIS2_PLACEMENT_3D ( 'NONE', #208, #120, #42 ) ;
#42 = DIRECTION ( 'NONE',  ( 0.0000000000000000000, 0.0000000000000000000, -1.000000000000000000 ) ) ;
#43 = APPROVAL_ROLE ( '' ) ;
#44 = VECTOR ( 'NONE', #64, 1000.000000000000000 ) ;
#45 = DATE_TIME_ROLE ( 'creation_date' ) ;
#46 = PERSON ( 'UNSPECIFIED', 'UNSPECIFIED', 'UNSPECIFIED', ('UNSPECIFIED'), ('UNSPECIFIED'), ('UNSPECIFIED') ) ;
#47 = VERTEX_POINT ( 'NONE', #192 ) ;
#48 =( GEOMETRIC_REPRESENTATION_CONTEXT ( 3 ) GLOBAL_UNCERTAINTY_ASSIGNED_CONTEXT ( ( #228 ) ) GLOBAL_UNIT_ASSIGNED_CONTEXT ( ( #146, #230, #143 ) ) REPRESENTATION_CONTEXT ( 'NONE', 'WORKASPACE' ) );
#49 = PERSON_AND_ORGANIZATION ( #46, #186 ) ;
#50 = ORIENTED_EDGE ( 'NONE', *, *, #92, .F. ) ;
#51 = CLOSED_SHELL ( 'NONE', ( #233, #136, #10, #14, #82, #61 ) ) ;
#52 = EDGE_CURVE ( 'NONE', #216, #193, #129, .T. ) ;
#53 = PERSON_AND_ORGANIZATION ( #46, #186 ) ;
#54 = ORIENTED_EDGE ( 'NONE', *, *, #1, .F. ) ;
#55 = ADVANCED_BREP_SHAPE_REPRESENTATION ( 'Web Model 48200_36971', ( #163, #217 ), #48 ) ;
#56 = AXIS2_PLACEMENT_3D ( 'NONE', #59, #157, #140 ) ;
#57 = CARTESIAN_POINT ( 'NONE',  ( -6.249999999999994700, 6.250000000000012400, 1.000000000000000000 ) ) ;
#58 = CARTESIAN_POINT ( 'NONE',  ( -6.249999999999994700, -6.249999999999984900, 1.000000000000000000 ) ) ;
#59 = CARTESIAN_POINT ( 'NONE',  ( 0.0000000000000000000, 0.0000000000000000000, -1.000000000000000000 ) ) ;
#60 = CARTESIAN_POINT ( 'NONE',  ( 6.250000000000006200, -6.249999999999984900, -1.000000000000000000 ) ) ;
#61 = ADVANCED_FACE ( 'NONE', ( #196 ), #79, .T. ) ;
#62 = CARTESIAN_POINT ( 'NONE',  ( -6.249999999999994700, -6.249999999999984900, 1.000000000000000000 ) ) ;
#63 = PERSON_AND_ORGANIZATION_ROLE ( 'design_owner' ) ;
#64 = DIRECTION ( 'NONE',  ( -0.0000000000000000000, -0.0000000000000000000, -1.000000000000000000 ) ) ;
#65 = PERSON_AND_ORGANIZATION_ROLE ( 'design_supplier' ) ;
#66 = APPROVAL_STATUS ( 'not_yet_approved' ) ;
#67 = PERSON_AND_ORGANIZATION ( #46, #186 ) ;
#68 = DIRECTION ( 'NONE',  ( -1.000000000000000000, 0.0000000000000000000, 0.0000000000000000000 ) ) ;
#69 = PRODUCT_DEFINITION_SHAPE ( 'NONE', 'NONE',  #87 ) ;
#70 = EDGE_CURVE ( 'NONE', #170, #112, #166, .T. ) ;
#71 = CALENDAR_DATE ( 2019, 7, 1 ) ;
#72 = LINE ( 'NONE', #191, #183 ) ;
#73 = AXIS2_PLACEMENT_3D ( 'NONE', #28, #81, #133 ) ;
#74 = LINE ( 'NONE', #60, #154 ) ;
#75 = ORIENTED_EDGE ( 'NONE', *, *, #92, .T. ) ;
#76 = CALENDAR_DATE ( 2019, 7, 1 ) ;
#77 = CC_DESIGN_APPROVAL ( #103, ( #151 ) ) ;
#78 = DIRECTION ( 'NONE',  ( 1.000000000000000000, 0.0000000000000000000, 0.0000000000000000000 ) ) ;
#79 = PLANE ( 'NONE',  #56 ) ;
#80 = DIRECTION ( 'NONE',  ( 1.000000000000000000, 0.0000000000000000000, 0.0000000000000000000 ) ) ;
#81 = DIRECTION ( 'NONE',  ( 0.0000000000000000000, 1.000000000000000000, 0.0000000000000000000 ) ) ;
#82 = ADVANCED_FACE ( 'NONE', ( #35 ), #36, .F. ) ;
#83 = VECTOR ( 'NONE', #80, 1000.000000000000000 ) ;
#84 = DATE_AND_TIME ( #160, #181 ) ;
#85 = PERSON_AND_ORGANIZATION ( #46, #186 ) ;
#86 = LINE ( 'NONE', #144, #97 ) ;
#87 = PRODUCT_DEFINITION ( 'UNKNOWN', '', #151, #173 ) ;
#88 = LINE ( 'NONE', #40, #39 ) ;
#89 = DIRECTION ( 'NONE',  ( -0.0000000000000000000, -1.000000000000000000, -0.0000000000000000000 ) ) ;
#90 = CARTESIAN_POINT ( 'NONE',  ( 0.0000000000000000000, 0.0000000000000000000, 1.000000000000000000 ) ) ;
#91 = CALENDAR_DATE ( 2019, 7, 1 ) ;
#92 = EDGE_CURVE ( 'NONE', #18, #47, #74, .T. ) ;
#93 = EDGE_LOOP ( 'NONE', ( #34, #106, #201, #6 ) ) ;
#94 = DIRECTION ( 'NONE',  ( -0.0000000000000000000, -1.000000000000000000, -0.0000000000000000000 ) ) ;
#95 = CARTESIAN_POINT ( 'NONE',  ( -6.249999999999994700, -6.249999999999984900, -1.000000000000000000 ) ) ;
#96 = DIRECTION ( 'NONE',  ( 1.000000000000000000, 0.0000000000000000000, 0.0000000000000000000 ) ) ;
#97 = VECTOR ( 'NONE', #121, 1000.000000000000000 ) ;
#98 = ORIENTED_EDGE ( 'NONE', *, *, #213, .T. ) ;
#99 = EDGE_CURVE ( 'NONE', #165, #170, #72, .T. ) ;
#100 = APPLICATION_PROTOCOL_DEFINITION ( 'international standard', 'config_control_design', 1994, #234 ) ;
#101 = ORIENTED_EDGE ( 'NONE', *, *, #99, .F. ) ;
#102 = DIRECTION ( 'NONE',  ( 0.0000000000000000000, 0.0000000000000000000, 1.000000000000000000 ) ) ;
#103 = APPROVAL ( #66, 'UNSPECIFIED' ) ;
#104 = COORDINATED_UNIVERSAL_TIME_OFFSET ( 5, 0, .BEHIND. ) ;
#105 = SHAPE_DEFINITION_REPRESENTATION ( #69, #55 ) ;
#106 = ORIENTED_EDGE ( 'NONE', *, *, #236, .T. ) ;
#107 = EDGE_CURVE ( 'NONE', #165, #216, #33, .T. ) ;
#108 = ORIENTED_EDGE ( 'NONE', *, *, #107, .F. ) ;
#109 = CARTESIAN_POINT ( 'NONE',  ( 6.250000000000006200, 6.250000000000012400, 1.000000000000000000 ) ) ;
#110 = APPROVAL_PERSON_ORGANIZATION ( #195, #103, #43 ) ;
#111 = LOCAL_TIME ( 10, 24, 50.00000000000000000, #231 ) ;
#112 = VERTEX_POINT ( 'NONE', #95 ) ;
#113 = CC_DESIGN_APPROVAL ( #189, ( #87 ) ) ;
#114 = CARTESIAN_POINT ( 'NONE',  ( 6.250000000000006200, -6.249999999999984900, 1.000000000000000000 ) ) ;
#115 = ORIENTED_EDGE ( 'NONE', *, *, #126, .F. ) ;
#116 = CARTESIAN_POINT ( 'NONE',  ( -6.249999999999994700, -6.249999999999984900, -1.000000000000000000 ) ) ;
#117 = CARTESIAN_POINT ( 'NONE',  ( -6.249999999999994700, 6.250000000000012400, -1.000000000000000000 ) ) ;
#118 = CC_DESIGN_PERSON_AND_ORGANIZATION_ASSIGNMENT ( #17, #65, ( #151 ) ) ;
#119 = COORDINATED_UNIVERSAL_TIME_OFFSET ( 5, 0, .BEHIND. ) ;
#120 = DIRECTION ( 'NONE',  ( 1.000000000000000000, 0.0000000000000000000, 0.0000000000000000000 ) ) ;
#121 = DIRECTION ( 'NONE',  ( -1.000000000000000000, -0.0000000000000000000, -0.0000000000000000000 ) ) ;
#122 = FACE_OUTER_BOUND ( 'NONE', #155, .T. ) ;
#123 = ORIENTED_EDGE ( 'NONE', *, *, #218, .T. ) ;
#124 = APPROVAL ( #125, 'UNSPECIFIED' ) ;
#125 = APPROVAL_STATUS ( 'not_yet_approved' ) ;
#126 = EDGE_CURVE ( 'NONE', #193, #30, #88, .T. ) ;
#127 = APPROVAL_PERSON_ORGANIZATION ( #53, #189, #141 ) ;
#128 = VECTOR ( 'NONE', #94, 1000.000000000000000 ) ;
#129 = LINE ( 'NONE', #169, #83 ) ;
#130 = CC_DESIGN_PERSON_AND_ORGANIZATION_ASSIGNMENT ( #206, #29, ( #13 ) ) ;
#131 = FACE_OUTER_BOUND ( 'NONE', #202, .T. ) ;
#132 = DIRECTION ( 'NONE',  ( 0.0000000000000000000, 1.000000000000000000, 0.0000000000000000000 ) ) ;
#133 = DIRECTION ( 'NONE',  ( 0.0000000000000000000, -0.0000000000000000000, 1.000000000000000000 ) ) ;
#134 = AXIS2_PLACEMENT_3D ( 'NONE', #57, #223, #8 ) ;
#135 = COORDINATED_UNIVERSAL_TIME_OFFSET ( 5, 0, .BEHIND. ) ;
#136 = ADVANCED_FACE ( 'NONE', ( #131 ), #222, .F. ) ;
#137 = DIRECTION ( 'NONE',  ( -1.000000000000000000, -0.0000000000000000000, -0.0000000000000000000 ) ) ;
#138 = ORIENTED_EDGE ( 'NONE', *, *, #213, .F. ) ;
#139 = CARTESIAN_POINT ( 'NONE',  ( 0.0000000000000000000, 0.0000000000000000000, 0.0000000000000000000 ) ) ;
#140 = DIRECTION ( 'NONE',  ( -1.000000000000000000, 0.0000000000000000000, -0.0000000000000000000 ) ) ;
#141 = APPROVAL_ROLE ( '' ) ;
#142 = VECTOR ( 'NONE', #152, 1000.000000000000000 ) ;
#143 =( NAMED_UNIT ( * ) SI_UNIT ( $, .STERADIAN. ) SOLID_ANGLE_UNIT ( ) );
#144 = CARTESIAN_POINT ( 'NONE',  ( -6.249999999999994700, 6.250000000000012400, 1.000000000000000000 ) ) ;
#145 = MECHANICAL_CONTEXT ( 'NONE', #234, 'mechanical' ) ;
#146 =( LENGTH_UNIT ( ) NAMED_UNIT ( * ) SI_UNIT ( .MILLI., .METRE. ) );
#147 = APPROVAL_DATE_TIME ( #84, #124 ) ;
#148 = ORIENTED_EDGE ( 'NONE', *, *, #99, .T. ) ;
#149 = CC_DESIGN_PERSON_AND_ORGANIZATION_ASSIGNMENT ( #85, #63, ( #180 ) ) ;
#150 = VECTOR ( 'NONE', #78, 1000.000000000000000 ) ;
#151 = PRODUCT_DEFINITION_FORMATION_WITH_SPECIFIED_SOURCE ( 'ANY', '', #180, .NOT_KNOWN. ) ;
#152 = DIRECTION ( 'NONE',  ( -0.0000000000000000000, -0.0000000000000000000, -1.000000000000000000 ) ) ;
#153 = COORDINATED_UNIVERSAL_TIME_OFFSET ( 5, 0, .BEHIND. ) ;
#154 = VECTOR ( 'NONE', #226, 1000.000000000000000 ) ;
#155 = EDGE_LOOP ( 'NONE', ( #4, #167, #108, #148 ) ) ;
#156 = CC_DESIGN_DATE_AND_TIME_ASSIGNMENT ( #200, #45, ( #87 ) ) ;
#157 = DIRECTION ( 'NONE',  ( 0.0000000000000000000, 0.0000000000000000000, -1.000000000000000000 ) ) ;
#158 = DIRECTION ( 'NONE',  ( 0.0000000000000000000, 0.0000000000000000000, -1.000000000000000000 ) ) ;
#159 = CC_DESIGN_APPROVAL ( #124, ( #13 ) ) ;
#160 = CALENDAR_DATE ( 2019, 7, 1 ) ;
#161 = DATE_TIME_ROLE ( 'classification_date' ) ;
#162 = ORIENTED_EDGE ( 'NONE', *, *, #220, .F. ) ;
#163 = MANIFOLD_SOLID_BREP ( 'Boss-Extrude1', #51 ) ;
#164 = LINE ( 'NONE', #116, #150 ) ;
#165 = VERTEX_POINT ( 'NONE', #5 ) ;
#166 = LINE ( 'NONE', #209, #128 ) ;
#167 = ORIENTED_EDGE ( 'NONE', *, *, #218, .F. ) ;
#168 = CC_DESIGN_SECURITY_CLASSIFICATION ( #13, ( #151 ) ) ;
#169 = CARTESIAN_POINT ( 'NONE',  ( -6.249999999999994700, -6.249999999999984900, 1.000000000000000000 ) ) ;
#170 = VERTEX_POINT ( 'NONE', #211 ) ;
#171 = DIRECTION ( 'NONE',  ( -1.000000000000000000, 0.0000000000000000000, -0.0000000000000000000 ) ) ;
#172 = CARTESIAN_POINT ( 'NONE',  ( 6.250000000000006200, -6.249999999999984900, -1.000000000000000000 ) ) ;
#173 = DESIGN_CONTEXT ( 'detailed design', #15, 'design' ) ;
#174 = EDGE_CURVE ( 'NONE', #112, #18, #164, .T. ) ;
#175 = PLANE ( 'NONE',  #41 ) ;
#176 = APPROVAL_ROLE ( '' ) ;
#177 = PERSON_AND_ORGANIZATION_ROLE ( 'creator' ) ;
#178 = LINE ( 'NONE', #7, #44 ) ;
#179 = ORIENTED_EDGE ( 'NONE', *, *, #52, .F. ) ;
#180 = PRODUCT ( 'Web Model 48200_36971', 'Web Model 48200_36971', '', ( #145 ) ) ;
#181 = LOCAL_TIME ( 10, 24, 50.00000000000000000, #104 ) ;
#182 = CC_DESIGN_PERSON_AND_ORGANIZATION_ASSIGNMENT ( #49, #32, ( #87 ) ) ;
#183 = VECTOR ( 'NONE', #24, 1000.000000000000000 ) ;
#184 = LOCAL_TIME ( 10, 24, 50.00000000000000000, #135 ) ;
#185 = AXIS2_PLACEMENT_3D ( 'NONE', #90, #158, #171 ) ;
#186 = ORGANIZATION ( 'UNSPECIFIED', 'UNSPECIFIED', '' ) ;
#187 = PERSON_AND_ORGANIZATION ( #46, #186 ) ;
#188 = DATE_AND_TIME ( #76, #111 ) ;
#189 = APPROVAL ( #198, 'UNSPECIFIED' ) ;
#190 = CARTESIAN_POINT ( 'NONE',  ( -6.249999999999994700, -6.249999999999984900, 1.000000000000000000 ) ) ;
#191 = CARTESIAN_POINT ( 'NONE',  ( -6.249999999999994700, 6.250000000000012400, 1.000000000000000000 ) ) ;
#192 = CARTESIAN_POINT ( 'NONE',  ( 6.250000000000006200, 6.250000000000012400, -1.000000000000000000 ) ) ;
#193 = VERTEX_POINT ( 'NONE', #114 ) ;
#194 = PRODUCT_RELATED_PRODUCT_CATEGORY ( 'detail', '', ( #180 ) ) ;
#195 = PERSON_AND_ORGANIZATION ( #46, #186 ) ;
#196 = FACE_OUTER_BOUND ( 'NONE', #215, .T. ) ;
#197 = ORIENTED_EDGE ( 'NONE', *, *, #70, .F. ) ;
#198 = APPROVAL_STATUS ( 'not_yet_approved' ) ;
#199 = EDGE_LOOP ( 'NONE', ( #204, #162, #179, #123 ) ) ;
#200 = DATE_AND_TIME ( #16, #237 ) ;
#201 = ORIENTED_EDGE ( 'NONE', *, *, #107, .T. ) ;
#202 = EDGE_LOOP ( 'NONE', ( #98, #101, #212, #3 ) ) ;
#203 = CC_DESIGN_PERSON_AND_ORGANIZATION_ASSIGNMENT ( #187, #177, ( #151 ) ) ;
#204 = ORIENTED_EDGE ( 'NONE', *, *, #174, .T. ) ;
#205 = ORIENTED_EDGE ( 'NONE', *, *, #220, .T. ) ;
#206 = PERSON_AND_ORGANIZATION ( #46, #186 ) ;
#207 = ORIENTED_EDGE ( 'NONE', *, *, #174, .F. ) ;
#208 = CARTESIAN_POINT ( 'NONE',  ( -6.249999999999994700, -6.249999999999984900, 1.000000000000000000 ) ) ;
#209 = CARTESIAN_POINT ( 'NONE',  ( -6.249999999999994700, -6.249999999999984900, -1.000000000000000000 ) ) ;
#210 = AXIS2_PLACEMENT_3D ( 'NONE', #232, #68, #12 ) ;
#211 = CARTESIAN_POINT ( 'NONE',  ( -6.249999999999994700, 6.250000000000012400, -1.000000000000000000 ) ) ;
#212 = ORIENTED_EDGE ( 'NONE', *, *, #236, .F. ) ;
#213 = EDGE_CURVE ( 'NONE', #47, #170, #235, .T. ) ;
#214 = LINE ( 'NONE', #109, #142 ) ;
#215 = EDGE_LOOP ( 'NONE', ( #50, #207, #197, #138 ) ) ;
#216 = VERTEX_POINT ( 'NONE', #190 ) ;
#217 = AXIS2_PLACEMENT_3D ( 'NONE', #139, #102, #96 ) ;
#218 = EDGE_CURVE ( 'NONE', #216, #112, #225, .T. ) ;
#219 = VECTOR ( 'NONE', #137, 1000.000000000000000 ) ;
#220 = EDGE_CURVE ( 'NONE', #193, #18, #178, .T. ) ;
#221 = VECTOR ( 'NONE', #89, 1000.000000000000000 ) ;
#222 = PLANE ( 'NONE',  #134 ) ;
#223 = DIRECTION ( 'NONE',  ( 0.0000000000000000000, -1.000000000000000000, 0.0000000000000000000 ) ) ;
#224 = DATE_AND_TIME ( #91, #184 ) ;
#225 = LINE ( 'NONE', #58, #20 ) ;
#226 = DIRECTION ( 'NONE',  ( 0.0000000000000000000, 1.000000000000000000, 0.0000000000000000000 ) ) ;
#227 = CARTESIAN_POINT ( 'NONE',  ( 6.250000000000006200, 6.250000000000012400, 1.000000000000000000 ) ) ;
#228 = UNCERTAINTY_MEASURE_WITH_UNIT (LENGTH_MEASURE( 1.000000000000000100E-005 ), #146, 'distance_accuracy_value', 'NONE');
#229 = APPLICATION_PROTOCOL_DEFINITION ( 'international standard', 'config_control_design', 1994, #15 ) ;
#230 =( NAMED_UNIT ( * ) PLANE_ANGLE_UNIT ( ) SI_UNIT ( $, .RADIAN. ) );
#231 = COORDINATED_UNIVERSAL_TIME_OFFSET ( 5, 0, .BEHIND. ) ;
#232 = CARTESIAN_POINT ( 'NONE',  ( 6.250000000000006200, -6.249999999999984900, 1.000000000000000000 ) ) ;
#233 = ADVANCED_FACE ( 'NONE', ( #11 ), #37, .F. ) ;
#234 = APPLICATION_CONTEXT ( 'configuration controlled 3d designs of mechanical parts and assemblies' ) ;
#235 = LINE ( 'NONE', #117, #219 ) ;
#236 = EDGE_CURVE ( 'NONE', #30, #165, #86, .T. ) ;
#237 = LOCAL_TIME ( 10, 24, 50.00000000000000000, #119 ) ;
ENDSEC;
END-ISO-10303-21;
