ISO-10303-21;
HEADER;
FILE_DESCRIPTION (( 'STEP AP203' ),
    '1' );
FILE_NAME ('Web Model 87705_14823.step',
    '2020-10-07T17:41:29',
    ( '' ),
    ( '' ),
    'SwSTEP 2.0',
    'SolidWorks 2018',
    '' );
FILE_SCHEMA (( 'CONFIG_CONTROL_DESIGN' ));
ENDSEC;

DATA;
#1 = ORIENTED_EDGE ( 'NONE', *, *, #149, .T. ) ;
#2 = EDGE_CURVE ( 'NONE', #133, #83, #14, .T. ) ;
#3 = PRODUCT ( 'Web Model 87705_14823', 'Web Model 87705_14823', '', ( #117 ) ) ;
#4 = ORIENTED_EDGE ( 'NONE', *, *, #29, .F. ) ;
#5 = CC_DESIGN_APPROVAL ( #174, ( #95 ) ) ;
#6 = PERSON_AND_ORGANIZATION_ROLE ( 'design_supplier' ) ;
#7 = APPROVAL_STATUS ( 'not_yet_approved' ) ;
#8 = PRODUCT_DEFINITION ( 'UNKNOWN', '', #126, #56 ) ;
#9 = DATE_AND_TIME ( #82, #88 ) ;
#10 = CARTESIAN_POINT ( 'NONE',  ( 0.0000000000000000000, 0.0000000000000000000, 5.000000000000000000 ) ) ;
#11 = COORDINATED_UNIVERSAL_TIME_OFFSET ( 5, 0, .BEHIND. ) ;
#12 = CIRCLE ( 'NONE', #103, 37.50000000000000711 ) ;
#13 = CC_DESIGN_SECURITY_CLASSIFICATION ( #95, ( #126 ) ) ;
#14 = LINE ( 'NONE', #127, #101 ) ;
#15 = AXIS2_PLACEMENT_3D ( 'NONE', #32, #23, #92 ) ;
#16 = CIRCLE ( 'NONE', #97, 37.50000000000000711 ) ;
#17 = CARTESIAN_POINT ( 'NONE',  ( 0.0000000000000000000, 0.0000000000000000000, 5.000000000000000000 ) ) ;
#18 = PERSON_AND_ORGANIZATION ( #58, #129 ) ;
#19 = CARTESIAN_POINT ( 'NONE',  ( 37.50000000000000711, 4.592425496802575156E-15, 0.0000000000000000000 ) ) ;
#20 = DIRECTION ( 'NONE',  ( -0.0000000000000000000, -0.0000000000000000000, -1.000000000000000000 ) ) ;
#21 = ADVANCED_FACE ( 'NONE', ( #93 ), #100, .T. ) ;
#22 = DIRECTION ( 'NONE',  ( 1.000000000000000000, 0.0000000000000000000, -0.0000000000000000000 ) ) ;
#23 = DIRECTION ( 'NONE',  ( -0.0000000000000000000, -0.0000000000000000000, -1.000000000000000000 ) ) ;
#24 = CC_DESIGN_PERSON_AND_ORGANIZATION_ASSIGNMENT ( #112, #66, ( #126 ) ) ;
#25 = CALENDAR_DATE ( 2020, 7, 10 ) ;
#26 = APPROVAL ( #63, 'UNSPECIFIED' ) ;
#27 = APPROVAL_PERSON_ORGANIZATION ( #125, #26, #156 ) ;
#28 = ORIENTED_EDGE ( 'NONE', *, *, #54, .F. ) ;
#29 = EDGE_CURVE ( 'NONE', #83, #142, #16, .T. ) ;
#30 = CYLINDRICAL_SURFACE ( 'NONE', #15, 37.50000000000000711 ) ;
#31 = CC_DESIGN_DATE_AND_TIME_ASSIGNMENT ( #141, #173, ( #8 ) ) ;
#32 = CARTESIAN_POINT ( 'NONE',  ( 0.0000000000000000000, 0.0000000000000000000, 5.000000000000000000 ) ) ;
#33 = COORDINATED_UNIVERSAL_TIME_OFFSET ( 5, 0, .BEHIND. ) ;
#34 = CC_DESIGN_PERSON_AND_ORGANIZATION_ASSIGNMENT ( #18, #51, ( #3 ) ) ;
#35 = CARTESIAN_POINT ( 'NONE',  ( 0.0000000000000000000, 0.0000000000000000000, 0.0000000000000000000 ) ) ;
#36 = AXIS2_PLACEMENT_3D ( 'NONE', #17, #114, #45 ) ;
#37 = DIRECTION ( 'NONE',  ( 0.0000000000000000000, 0.0000000000000000000, 1.000000000000000000 ) ) ;
#38 = DATE_AND_TIME ( #75, #111 ) ;
#39 = CARTESIAN_POINT ( 'NONE',  ( 0.0000000000000000000, 0.0000000000000000000, 5.000000000000000000 ) ) ;
#40 = APPROVAL_DATE_TIME ( #9, #26 ) ;
#41 = PRODUCT_RELATED_PRODUCT_CATEGORY ( 'detail', '', ( #3 ) ) ;
#42 = CYLINDRICAL_SURFACE ( 'NONE', #118, 37.50000000000000711 ) ;
#43 = EDGE_CURVE ( 'NONE', #53, #142, #57, .T. ) ;
#44 = CC_DESIGN_PERSON_AND_ORGANIZATION_ASSIGNMENT ( #73, #64, ( #8 ) ) ;
#45 = DIRECTION ( 'NONE',  ( 1.000000000000000000, 0.0000000000000000000, -0.0000000000000000000 ) ) ;
#46 = CARTESIAN_POINT ( 'NONE',  ( -37.50000000000000711, 0.0000000000000000000, 5.000000000000000000 ) ) ;
#47 = EDGE_CURVE ( 'NONE', #53, #133, #12, .T. ) ;
#48 = DIRECTION ( 'NONE',  ( 1.000000000000000000, 0.0000000000000000000, 0.0000000000000000000 ) ) ;
#49 = PLANE ( 'NONE',  #165 ) ;
#50 = APPLICATION_PROTOCOL_DEFINITION ( 'international standard', 'config_control_design', 1994, #61 ) ;
#51 = PERSON_AND_ORGANIZATION_ROLE ( 'design_owner' ) ;
#52 = COORDINATED_UNIVERSAL_TIME_OFFSET ( 5, 0, .BEHIND. ) ;
#53 = VERTEX_POINT ( 'NONE', #167 ) ;
#54 = EDGE_CURVE ( 'NONE', #133, #53, #123, .T. ) ;
#55 = DATE_AND_TIME ( #25, #99 ) ;
#56 = DESIGN_CONTEXT ( 'detailed design', #61, 'design' ) ;
#57 = LINE ( 'NONE', #46, #162 ) ;
#58 = PERSON ( 'UNSPECIFIED', 'UNSPECIFIED', 'UNSPECIFIED', ('UNSPECIFIED'), ('UNSPECIFIED'), ('UNSPECIFIED') ) ;
#59 = ADVANCED_BREP_SHAPE_REPRESENTATION ( 'Web Model 87705_14823', ( #170, #109 ), #150 ) ;
#60 = APPROVAL_DATE_TIME ( #38, #72 ) ;
#61 = APPLICATION_CONTEXT ( 'configuration controlled 3d designs of mechanical parts and assemblies' ) ;
#62 = ORIENTED_EDGE ( 'NONE', *, *, #2, .F. ) ;
#63 = APPROVAL_STATUS ( 'not_yet_approved' ) ;
#64 = PERSON_AND_ORGANIZATION_ROLE ( 'creator' ) ;
#65 = DIRECTION ( 'NONE',  ( 0.0000000000000000000, 0.0000000000000000000, 1.000000000000000000 ) ) ;
#66 = PERSON_AND_ORGANIZATION_ROLE ( 'creator' ) ;
#67 = PERSON_AND_ORGANIZATION ( #58, #129 ) ;
#68 = FACE_OUTER_BOUND ( 'NONE', #104, .T. ) ;
#69 = ORIENTED_EDGE ( 'NONE', *, *, #149, .F. ) ;
#70 = UNCERTAINTY_MEASURE_WITH_UNIT (LENGTH_MEASURE( 1.000000000000000082E-05 ), #119, 'distance_accuracy_value', 'NONE');
#71 = ORIENTED_EDGE ( 'NONE', *, *, #54, .T. ) ;
#72 = APPROVAL ( #147, 'UNSPECIFIED' ) ;
#73 = PERSON_AND_ORGANIZATION ( #58, #129 ) ;
#74 = CARTESIAN_POINT ( 'NONE',  ( 0.0000000000000000000, 0.0000000000000000000, 0.0000000000000000000 ) ) ;
#75 = CALENDAR_DATE ( 2020, 7, 10 ) ;
#76 = APPROVAL_ROLE ( '' ) ;
#77 = DIRECTION ( 'NONE',  ( 0.0000000000000000000, 0.0000000000000000000, 1.000000000000000000 ) ) ;
#78 = APPROVAL_PERSON_ORGANIZATION ( #146, #72, #76 ) ;
#79 = DIRECTION ( 'NONE',  ( -1.000000000000000000, 0.0000000000000000000, 0.0000000000000000000 ) ) ;
#80 = PERSON_AND_ORGANIZATION_ROLE ( 'classification_officer' ) ;
#81 = CC_DESIGN_DATE_AND_TIME_ASSIGNMENT ( #175, #172, ( #95 ) ) ;
#82 = CALENDAR_DATE ( 2020, 7, 10 ) ;
#83 = VERTEX_POINT ( 'NONE', #19 ) ;
#84 = CC_DESIGN_PERSON_AND_ORGANIZATION_ASSIGNMENT ( #128, #6, ( #126 ) ) ;
#85 = CLOSED_SHELL ( 'NONE', ( #130, #87, #21, #102 ) ) ;
#86 = CC_DESIGN_APPROVAL ( #26, ( #8 ) ) ;
#87 = ADVANCED_FACE ( 'NONE', ( #68 ), #42, .T. ) ;
#88 = LOCAL_TIME ( 13, 41, 29.00000000000000000, #11 ) ;
#89 = EDGE_LOOP ( 'NONE', ( #158, #71 ) ) ;
#90 = DIRECTION ( 'NONE',  ( 0.0000000000000000000, 0.0000000000000000000, 1.000000000000000000 ) ) ;
#91 = CARTESIAN_POINT ( 'NONE',  ( 0.0000000000000000000, 0.0000000000000000000, 5.000000000000000000 ) ) ;
#92 = DIRECTION ( 'NONE',  ( -1.000000000000000000, 0.0000000000000000000, 0.0000000000000000000 ) ) ;
#93 = FACE_OUTER_BOUND ( 'NONE', #89, .T. ) ;
#94 = APPLICATION_CONTEXT ( 'configuration controlled 3d designs of mechanical parts and assemblies' ) ;
#95 = SECURITY_CLASSIFICATION ( '', '', #161 ) ;
#96 = ORIENTED_EDGE ( 'NONE', *, *, #29, .T. ) ;
#97 = AXIS2_PLACEMENT_3D ( 'NONE', #74, #90, #171 ) ;
#98 = ORIENTED_EDGE ( 'NONE', *, *, #43, .T. ) ;
#99 = LOCAL_TIME ( 13, 41, 29.00000000000000000, #52 ) ;
#100 = PLANE ( 'NONE',  #36 ) ;
#101 = VECTOR ( 'NONE', #113, 1000.000000000000000 ) ;
#102 = ADVANCED_FACE ( 'NONE', ( #121 ), #49, .F. ) ;
#103 = AXIS2_PLACEMENT_3D ( 'NONE', #10, #116, #157 ) ;
#104 = EDGE_LOOP ( 'NONE', ( #62, #151, #98, #1 ) ) ;
#105 = APPLICATION_PROTOCOL_DEFINITION ( 'international standard', 'config_control_design', 1994, #94 ) ;
#106 = APPROVAL_ROLE ( '' ) ;
#107 = CARTESIAN_POINT ( 'NONE',  ( -37.50000000000000711, 0.0000000000000000000, 0.0000000000000000000 ) ) ;
#108 = PERSON_AND_ORGANIZATION ( #58, #129 ) ;
#109 = AXIS2_PLACEMENT_3D ( 'NONE', #134, #65, #143 ) ;
#110 = LOCAL_TIME ( 13, 41, 29.00000000000000000, #138 ) ;
#111 = LOCAL_TIME ( 13, 41, 29.00000000000000000, #124 ) ;
#112 = PERSON_AND_ORGANIZATION ( #58, #129 ) ;
#113 = DIRECTION ( 'NONE',  ( -0.0000000000000000000, -0.0000000000000000000, -1.000000000000000000 ) ) ;
#114 = DIRECTION ( 'NONE',  ( 0.0000000000000000000, 0.0000000000000000000, 1.000000000000000000 ) ) ;
#115 = FACE_OUTER_BOUND ( 'NONE', #169, .T. ) ;
#116 = DIRECTION ( 'NONE',  ( 0.0000000000000000000, 0.0000000000000000000, 1.000000000000000000 ) ) ;
#117 = MECHANICAL_CONTEXT ( 'NONE', #94, 'mechanical' ) ;
#118 = AXIS2_PLACEMENT_3D ( 'NONE', #91, #20, #79 ) ;
#119 =( LENGTH_UNIT ( ) NAMED_UNIT ( * ) SI_UNIT ( .MILLI., .METRE. ) );
#120 = APPROVAL_PERSON_ORGANIZATION ( #108, #174, #106 ) ;
#121 = FACE_OUTER_BOUND ( 'NONE', #137, .T. ) ;
#122 = AXIS2_PLACEMENT_3D ( 'NONE', #35, #77, #145 ) ;
#123 = CIRCLE ( 'NONE', #155, 37.50000000000000711 ) ;
#124 = COORDINATED_UNIVERSAL_TIME_OFFSET ( 5, 0, .BEHIND. ) ;
#125 = PERSON_AND_ORGANIZATION ( #58, #129 ) ;
#126 = PRODUCT_DEFINITION_FORMATION_WITH_SPECIFIED_SOURCE ( 'ANY', '', #3, .NOT_KNOWN. ) ;
#127 = CARTESIAN_POINT ( 'NONE',  ( 37.50000000000000711, 4.592425496802575156E-15, 5.000000000000000000 ) ) ;
#128 = PERSON_AND_ORGANIZATION ( #58, #129 ) ;
#129 = ORGANIZATION ( 'UNSPECIFIED', 'UNSPECIFIED', '' ) ;
#130 = ADVANCED_FACE ( 'NONE', ( #115 ), #30, .T. ) ;
#131 =( NAMED_UNIT ( * ) SI_UNIT ( $, .STERADIAN. ) SOLID_ANGLE_UNIT ( ) );
#132 = DIRECTION ( 'NONE',  ( 0.0000000000000000000, 0.0000000000000000000, 1.000000000000000000 ) ) ;
#133 = VERTEX_POINT ( 'NONE', #160 ) ;
#134 = CARTESIAN_POINT ( 'NONE',  ( 0.0000000000000000000, 0.0000000000000000000, 0.0000000000000000000 ) ) ;
#135 = CC_DESIGN_APPROVAL ( #72, ( #126 ) ) ;
#136 = APPROVAL_DATE_TIME ( #55, #174 ) ;
#137 = EDGE_LOOP ( 'NONE', ( #69, #4 ) ) ;
#138 = COORDINATED_UNIVERSAL_TIME_OFFSET ( 5, 0, .BEHIND. ) ;
#139 = CIRCLE ( 'NONE', #122, 37.50000000000000711 ) ;
#140 = DIRECTION ( 'NONE',  ( -0.0000000000000000000, -0.0000000000000000000, -1.000000000000000000 ) ) ;
#141 = DATE_AND_TIME ( #148, #110 ) ;
#142 = VERTEX_POINT ( 'NONE', #107 ) ;
#143 = DIRECTION ( 'NONE',  ( 1.000000000000000000, 0.0000000000000000000, 0.0000000000000000000 ) ) ;
#144 = CARTESIAN_POINT ( 'NONE',  ( 0.0000000000000000000, 0.0000000000000000000, 0.0000000000000000000 ) ) ;
#145 = DIRECTION ( 'NONE',  ( 1.000000000000000000, 0.0000000000000000000, 0.0000000000000000000 ) ) ;
#146 = PERSON_AND_ORGANIZATION ( #58, #129 ) ;
#147 = APPROVAL_STATUS ( 'not_yet_approved' ) ;
#148 = CALENDAR_DATE ( 2020, 7, 10 ) ;
#149 = EDGE_CURVE ( 'NONE', #142, #83, #139, .T. ) ;
#150 =( GEOMETRIC_REPRESENTATION_CONTEXT ( 3 ) GLOBAL_UNCERTAINTY_ASSIGNED_CONTEXT ( ( #70 ) ) GLOBAL_UNIT_ASSIGNED_CONTEXT ( ( #119, #159, #131 ) ) REPRESENTATION_CONTEXT ( 'NONE', 'WORKASPACE' ) );
#151 = ORIENTED_EDGE ( 'NONE', *, *, #47, .F. ) ;
#152 = CC_DESIGN_PERSON_AND_ORGANIZATION_ASSIGNMENT ( #67, #80, ( #95 ) ) ;
#153 = PRODUCT_DEFINITION_SHAPE ( 'NONE', 'NONE',  #8 ) ;
#154 = CALENDAR_DATE ( 2020, 7, 10 ) ;
#155 = AXIS2_PLACEMENT_3D ( 'NONE', #39, #132, #48 ) ;
#156 = APPROVAL_ROLE ( '' ) ;
#157 = DIRECTION ( 'NONE',  ( 1.000000000000000000, 0.0000000000000000000, 0.0000000000000000000 ) ) ;
#158 = ORIENTED_EDGE ( 'NONE', *, *, #47, .T. ) ;
#159 =( NAMED_UNIT ( * ) PLANE_ANGLE_UNIT ( ) SI_UNIT ( $, .RADIAN. ) );
#160 = CARTESIAN_POINT ( 'NONE',  ( 37.50000000000000711, 4.592425496802575156E-15, 5.000000000000000000 ) ) ;
#161 = SECURITY_CLASSIFICATION_LEVEL ( 'unclassified' ) ;
#162 = VECTOR ( 'NONE', #140, 1000.000000000000000 ) ;
#163 = ORIENTED_EDGE ( 'NONE', *, *, #2, .T. ) ;
#164 = SHAPE_DEFINITION_REPRESENTATION ( #153, #59 ) ;
#165 = AXIS2_PLACEMENT_3D ( 'NONE', #144, #37, #22 ) ;
#166 = ORIENTED_EDGE ( 'NONE', *, *, #43, .F. ) ;
#167 = CARTESIAN_POINT ( 'NONE',  ( -37.50000000000000711, 0.0000000000000000000, 5.000000000000000000 ) ) ;
#168 = LOCAL_TIME ( 13, 41, 29.00000000000000000, #33 ) ;
#169 = EDGE_LOOP ( 'NONE', ( #28, #163, #96, #166 ) ) ;
#170 = MANIFOLD_SOLID_BREP ( 'Extrude1', #85 ) ;
#171 = DIRECTION ( 'NONE',  ( 1.000000000000000000, 0.0000000000000000000, 0.0000000000000000000 ) ) ;
#172 = DATE_TIME_ROLE ( 'classification_date' ) ;
#173 = DATE_TIME_ROLE ( 'creation_date' ) ;
#174 = APPROVAL ( #7, 'UNSPECIFIED' ) ;
#175 = DATE_AND_TIME ( #154, #168 ) ;
ENDSEC;
END-ISO-10303-21;
