ISO-10303-21;
HEADER;
FILE_DESCRIPTION (( 'STEP AP203' ),
    '1' );
FILE_NAME ('Web Model 63208_14819.step',
    '2020-10-07T17:37:21',
    ( '' ),
    ( '' ),
    'SwSTEP 2.0',
    'SolidWorks 2018',
    '' );
FILE_SCHEMA (( 'CONFIG_CONTROL_DESIGN' ));
ENDSEC;

DATA;
#1 = DIRECTION ( 'NONE',  ( 1.000000000000000000, 0.0000000000000000000, 0.0000000000000000000 ) ) ;
#2 = DIRECTION ( 'NONE',  ( 0.0000000000000000000, 0.0000000000000000000, 1.000000000000000000 ) ) ;
#3 = PERSON_AND_ORGANIZATION ( #148, #32 ) ;
#4 = DIRECTION ( 'NONE',  ( -1.000000000000000000, 0.0000000000000000000, 0.0000000000000000000 ) ) ;
#5 = DIRECTION ( 'NONE',  ( -0.0000000000000000000, -0.0000000000000000000, -1.000000000000000000 ) ) ;
#6 = APPROVAL_STATUS ( 'not_yet_approved' ) ;
#7 = PERSON_AND_ORGANIZATION_ROLE ( 'design_owner' ) ;
#8 = ORIENTED_EDGE ( 'NONE', *, *, #64, .F. ) ;
#9 = CIRCLE ( 'NONE', #144, 15.00000000000000000 ) ;
#10 = AXIS2_PLACEMENT_3D ( 'NONE', #26, #2, #1 ) ;
#11 = ORIENTED_EDGE ( 'NONE', *, *, #114, .T. ) ;
#12 = APPROVAL_PERSON_ORGANIZATION ( #50, #21, #42 ) ;
#13 = EDGE_CURVE ( 'NONE', #97, #34, #9, .T. ) ;
#14 = CARTESIAN_POINT ( 'NONE',  ( 15.00000000000000000, 1.836970198721029589E-15, 3.000000000000000000 ) ) ;
#15 = PERSON_AND_ORGANIZATION ( #148, #32 ) ;
#16 = PERSON_AND_ORGANIZATION_ROLE ( 'classification_officer' ) ;
#17 = LOCAL_TIME ( 13, 37, 21.00000000000000000, #22 ) ;
#18 = EDGE_CURVE ( 'NONE', #34, #102, #136, .T. ) ;
#19 = APPLICATION_PROTOCOL_DEFINITION ( 'international standard', 'config_control_design', 1994, #75 ) ;
#20 = PRODUCT_RELATED_PRODUCT_CATEGORY ( 'detail', '', ( #51 ) ) ;
#21 = APPROVAL ( #72, 'UNSPECIFIED' ) ;
#22 = COORDINATED_UNIVERSAL_TIME_OFFSET ( 5, 0, .BEHIND. ) ;
#23 = AXIS2_PLACEMENT_3D ( 'NONE', #150, #132, #168 ) ;
#24 = CARTESIAN_POINT ( 'NONE',  ( 0.0000000000000000000, 0.0000000000000000000, 0.0000000000000000000 ) ) ;
#25 = CARTESIAN_POINT ( 'NONE',  ( 0.0000000000000000000, 0.0000000000000000000, 3.000000000000000000 ) ) ;
#26 = CARTESIAN_POINT ( 'NONE',  ( 0.0000000000000000000, 0.0000000000000000000, 3.000000000000000000 ) ) ;
#27 = SHAPE_DEFINITION_REPRESENTATION ( #94, #56 ) ;
#28 = APPLICATION_CONTEXT ( 'configuration controlled 3d designs of mechanical parts and assemblies' ) ;
#29 =( LENGTH_UNIT ( ) NAMED_UNIT ( * ) SI_UNIT ( .MILLI., .METRE. ) );
#30 = ORIENTED_EDGE ( 'NONE', *, *, #13, .F. ) ;
#31 = MECHANICAL_CONTEXT ( 'NONE', #75, 'mechanical' ) ;
#32 = ORGANIZATION ( 'UNSPECIFIED', 'UNSPECIFIED', '' ) ;
#33 = PERSON_AND_ORGANIZATION ( #148, #32 ) ;
#34 = VERTEX_POINT ( 'NONE', #158 ) ;
#35 = CC_DESIGN_PERSON_AND_ORGANIZATION_ASSIGNMENT ( #15, #41, ( #103 ) ) ;
#36 = CIRCLE ( 'NONE', #10, 15.00000000000000000 ) ;
#37 = LOCAL_TIME ( 13, 37, 21.00000000000000000, #91 ) ;
#38 = CC_DESIGN_APPROVAL ( #21, ( #59 ) ) ;
#39 = ORIENTED_EDGE ( 'NONE', *, *, #65, .T. ) ;
#40 = DATE_AND_TIME ( #169, #106 ) ;
#41 = PERSON_AND_ORGANIZATION_ROLE ( 'creator' ) ;
#42 = APPROVAL_ROLE ( '' ) ;
#43 = FACE_OUTER_BOUND ( 'NONE', #109, .T. ) ;
#44 = AXIS2_PLACEMENT_3D ( 'NONE', #25, #133, #63 ) ;
#45 = DATE_TIME_ROLE ( 'classification_date' ) ;
#46 = CARTESIAN_POINT ( 'NONE',  ( 0.0000000000000000000, 0.0000000000000000000, 3.000000000000000000 ) ) ;
#47 = ORIENTED_EDGE ( 'NONE', *, *, #18, .T. ) ;
#48 = CC_DESIGN_APPROVAL ( #146, ( #103 ) ) ;
#49 = PERSON_AND_ORGANIZATION ( #148, #32 ) ;
#50 = PERSON_AND_ORGANIZATION ( #148, #32 ) ;
#51 = PRODUCT ( 'Web Model 63208_14819', 'Web Model 63208_14819', '', ( #31 ) ) ;
#52 = PRODUCT_DEFINITION ( 'UNKNOWN', '', #103, #122 ) ;
#53 = CARTESIAN_POINT ( 'NONE',  ( -15.00000000000000000, 0.0000000000000000000, 3.000000000000000000 ) ) ;
#54 = CALENDAR_DATE ( 2020, 7, 10 ) ;
#55 = CARTESIAN_POINT ( 'NONE',  ( 0.0000000000000000000, 0.0000000000000000000, 3.000000000000000000 ) ) ;
#56 = ADVANCED_BREP_SHAPE_REPRESENTATION ( 'Web Model 63208_14819', ( #92, #23 ), #151 ) ;
#57 = PLANE ( 'NONE',  #44 ) ;
#58 = APPLICATION_PROTOCOL_DEFINITION ( 'international standard', 'config_control_design', 1994, #28 ) ;
#59 = SECURITY_CLASSIFICATION ( '', '', #147 ) ;
#60 = LOCAL_TIME ( 13, 37, 21.00000000000000000, #161 ) ;
#61 = DIRECTION ( 'NONE',  ( -0.0000000000000000000, -0.0000000000000000000, -1.000000000000000000 ) ) ;
#62 = FACE_OUTER_BOUND ( 'NONE', #66, .T. ) ;
#63 = DIRECTION ( 'NONE',  ( 1.000000000000000000, 0.0000000000000000000, -0.0000000000000000000 ) ) ;
#64 = EDGE_CURVE ( 'NONE', #34, #97, #36, .T. ) ;
#65 = EDGE_CURVE ( 'NONE', #81, #102, #68, .T. ) ;
#66 = EDGE_LOOP ( 'NONE', ( #8, #47, #11, #167 ) ) ;
#67 = AXIS2_PLACEMENT_3D ( 'NONE', #46, #5, #4 ) ;
#68 = CIRCLE ( 'NONE', #111, 15.00000000000000000 ) ;
#69 = DIRECTION ( 'NONE',  ( 1.000000000000000000, 0.0000000000000000000, 0.0000000000000000000 ) ) ;
#70 = ADVANCED_FACE ( 'NONE', ( #139 ), #101, .T. ) ;
#71 = COORDINATED_UNIVERSAL_TIME_OFFSET ( 5, 0, .BEHIND. ) ;
#72 = APPROVAL_STATUS ( 'not_yet_approved' ) ;
#73 = CC_DESIGN_PERSON_AND_ORGANIZATION_ASSIGNMENT ( #33, #131, ( #103 ) ) ;
#74 = CARTESIAN_POINT ( 'NONE',  ( 0.0000000000000000000, 0.0000000000000000000, 0.0000000000000000000 ) ) ;
#75 = APPLICATION_CONTEXT ( 'configuration controlled 3d designs of mechanical parts and assemblies' ) ;
#76 = CYLINDRICAL_SURFACE ( 'NONE', #67, 15.00000000000000000 ) ;
#77 = APPROVAL_PERSON_ORGANIZATION ( #140, #166, #117 ) ;
#78 = CC_DESIGN_APPROVAL ( #166, ( #52 ) ) ;
#79 = EDGE_LOOP ( 'NONE', ( #128, #110 ) ) ;
#80 = COORDINATED_UNIVERSAL_TIME_OFFSET ( 5, 0, .BEHIND. ) ;
#81 = VERTEX_POINT ( 'NONE', #127 ) ;
#82 = CC_DESIGN_SECURITY_CLASSIFICATION ( #59, ( #103 ) ) ;
#83 = LINE ( 'NONE', #134, #141 ) ;
#84 = AXIS2_PLACEMENT_3D ( 'NONE', #142, #115, #129 ) ;
#85 = PERSON_AND_ORGANIZATION_ROLE ( 'creator' ) ;
#86 = DATE_AND_TIME ( #54, #17 ) ;
#87 = DIRECTION ( 'NONE',  ( 0.0000000000000000000, 0.0000000000000000000, 1.000000000000000000 ) ) ;
#88 =( NAMED_UNIT ( * ) SI_UNIT ( $, .STERADIAN. ) SOLID_ANGLE_UNIT ( ) );
#89 = FACE_OUTER_BOUND ( 'NONE', #79, .T. ) ;
#90 = PERSON_AND_ORGANIZATION ( #148, #32 ) ;
#91 = COORDINATED_UNIVERSAL_TIME_OFFSET ( 5, 0, .BEHIND. ) ;
#92 = MANIFOLD_SOLID_BREP ( 'Extrude1', #159 ) ;
#93 = DIRECTION ( 'NONE',  ( 0.0000000000000000000, 0.0000000000000000000, 1.000000000000000000 ) ) ;
#94 = PRODUCT_DEFINITION_SHAPE ( 'NONE', 'NONE',  #52 ) ;
#95 = APPROVAL_DATE_TIME ( #118, #146 ) ;
#96 = APPROVAL_ROLE ( '' ) ;
#97 = VERTEX_POINT ( 'NONE', #53 ) ;
#98 = ADVANCED_FACE ( 'NONE', ( #43 ), #57, .T. ) ;
#99 = PLANE ( 'NONE',  #125 ) ;
#100 = DIRECTION ( 'NONE',  ( 1.000000000000000000, 0.0000000000000000000, -0.0000000000000000000 ) ) ;
#101 = CYLINDRICAL_SURFACE ( 'NONE', #84, 15.00000000000000000 ) ;
#102 = VERTEX_POINT ( 'NONE', #163 ) ;
#103 = PRODUCT_DEFINITION_FORMATION_WITH_SPECIFIED_SOURCE ( 'ANY', '', #51, .NOT_KNOWN. ) ;
#104 = DIRECTION ( 'NONE',  ( 0.0000000000000000000, 0.0000000000000000000, 1.000000000000000000 ) ) ;
#105 = VECTOR ( 'NONE', #143, 1000.000000000000000 ) ;
#106 = LOCAL_TIME ( 13, 37, 21.00000000000000000, #71 ) ;
#107 = CC_DESIGN_DATE_AND_TIME_ASSIGNMENT ( #86, #45, ( #59 ) ) ;
#108 =( NAMED_UNIT ( * ) PLANE_ANGLE_UNIT ( ) SI_UNIT ( $, .RADIAN. ) );
#109 = EDGE_LOOP ( 'NONE', ( #153, #154 ) ) ;
#110 = ORIENTED_EDGE ( 'NONE', *, *, #114, .F. ) ;
#111 = AXIS2_PLACEMENT_3D ( 'NONE', #24, #104, #162 ) ;
#112 = ORIENTED_EDGE ( 'NONE', *, *, #156, .T. ) ;
#113 = APPROVAL_DATE_TIME ( #175, #21 ) ;
#114 = EDGE_CURVE ( 'NONE', #102, #81, #120, .T. ) ;
#115 = DIRECTION ( 'NONE',  ( -0.0000000000000000000, -0.0000000000000000000, -1.000000000000000000 ) ) ;
#116 = DATE_TIME_ROLE ( 'creation_date' ) ;
#117 = APPROVAL_ROLE ( '' ) ;
#118 = DATE_AND_TIME ( #130, #37 ) ;
#119 = CC_DESIGN_PERSON_AND_ORGANIZATION_ASSIGNMENT ( #3, #16, ( #59 ) ) ;
#120 = CIRCLE ( 'NONE', #124, 15.00000000000000000 ) ;
#121 = DIRECTION ( 'NONE',  ( 1.000000000000000000, 0.0000000000000000000, 0.0000000000000000000 ) ) ;
#122 = DESIGN_CONTEXT ( 'detailed design', #28, 'design' ) ;
#123 = DATE_AND_TIME ( #126, #157 ) ;
#124 = AXIS2_PLACEMENT_3D ( 'NONE', #165, #87, #121 ) ;
#125 = AXIS2_PLACEMENT_3D ( 'NONE', #74, #152, #100 ) ;
#126 = CALENDAR_DATE ( 2020, 7, 10 ) ;
#127 = CARTESIAN_POINT ( 'NONE',  ( -15.00000000000000000, 0.0000000000000000000, 0.0000000000000000000 ) ) ;
#128 = ORIENTED_EDGE ( 'NONE', *, *, #65, .F. ) ;
#129 = DIRECTION ( 'NONE',  ( -1.000000000000000000, 0.0000000000000000000, 0.0000000000000000000 ) ) ;
#130 = CALENDAR_DATE ( 2020, 7, 10 ) ;
#131 = PERSON_AND_ORGANIZATION_ROLE ( 'design_supplier' ) ;
#132 = DIRECTION ( 'NONE',  ( 0.0000000000000000000, 0.0000000000000000000, 1.000000000000000000 ) ) ;
#133 = DIRECTION ( 'NONE',  ( 0.0000000000000000000, 0.0000000000000000000, 1.000000000000000000 ) ) ;
#134 = CARTESIAN_POINT ( 'NONE',  ( -15.00000000000000000, 0.0000000000000000000, 3.000000000000000000 ) ) ;
#135 = ADVANCED_FACE ( 'NONE', ( #62 ), #76, .T. ) ;
#136 = LINE ( 'NONE', #14, #105 ) ;
#137 = CALENDAR_DATE ( 2020, 7, 10 ) ;
#138 = CC_DESIGN_DATE_AND_TIME_ASSIGNMENT ( #40, #116, ( #52 ) ) ;
#139 = FACE_OUTER_BOUND ( 'NONE', #173, .T. ) ;
#140 = PERSON_AND_ORGANIZATION ( #148, #32 ) ;
#141 = VECTOR ( 'NONE', #61, 1000.000000000000000 ) ;
#142 = CARTESIAN_POINT ( 'NONE',  ( 0.0000000000000000000, 0.0000000000000000000, 3.000000000000000000 ) ) ;
#143 = DIRECTION ( 'NONE',  ( -0.0000000000000000000, -0.0000000000000000000, -1.000000000000000000 ) ) ;
#144 = AXIS2_PLACEMENT_3D ( 'NONE', #55, #93, #69 ) ;
#145 = PERSON_AND_ORGANIZATION ( #148, #32 ) ;
#146 = APPROVAL ( #164, 'UNSPECIFIED' ) ;
#147 = SECURITY_CLASSIFICATION_LEVEL ( 'unclassified' ) ;
#148 = PERSON ( 'UNSPECIFIED', 'UNSPECIFIED', 'UNSPECIFIED', ('UNSPECIFIED'), ('UNSPECIFIED'), ('UNSPECIFIED') ) ;
#149 = ORIENTED_EDGE ( 'NONE', *, *, #18, .F. ) ;
#150 = CARTESIAN_POINT ( 'NONE',  ( 0.0000000000000000000, 0.0000000000000000000, 0.0000000000000000000 ) ) ;
#151 =( GEOMETRIC_REPRESENTATION_CONTEXT ( 3 ) GLOBAL_UNCERTAINTY_ASSIGNED_CONTEXT ( ( #160 ) ) GLOBAL_UNIT_ASSIGNED_CONTEXT ( ( #29, #108, #88 ) ) REPRESENTATION_CONTEXT ( 'NONE', 'WORKASPACE' ) );
#152 = DIRECTION ( 'NONE',  ( 0.0000000000000000000, 0.0000000000000000000, 1.000000000000000000 ) ) ;
#153 = ORIENTED_EDGE ( 'NONE', *, *, #13, .T. ) ;
#154 = ORIENTED_EDGE ( 'NONE', *, *, #64, .T. ) ;
#155 = APPROVAL_DATE_TIME ( #123, #166 ) ;
#156 = EDGE_CURVE ( 'NONE', #97, #81, #83, .T. ) ;
#157 = LOCAL_TIME ( 13, 37, 21.00000000000000000, #80 ) ;
#158 = CARTESIAN_POINT ( 'NONE',  ( 15.00000000000000000, 1.836970198721029589E-15, 3.000000000000000000 ) ) ;
#159 = CLOSED_SHELL ( 'NONE', ( #135, #70, #98, #170 ) ) ;
#160 = UNCERTAINTY_MEASURE_WITH_UNIT (LENGTH_MEASURE( 1.000000000000000082E-05 ), #29, 'distance_accuracy_value', 'NONE');
#161 = COORDINATED_UNIVERSAL_TIME_OFFSET ( 5, 0, .BEHIND. ) ;
#162 = DIRECTION ( 'NONE',  ( 1.000000000000000000, 0.0000000000000000000, 0.0000000000000000000 ) ) ;
#163 = CARTESIAN_POINT ( 'NONE',  ( 15.00000000000000000, 1.836970198721029589E-15, 0.0000000000000000000 ) ) ;
#164 = APPROVAL_STATUS ( 'not_yet_approved' ) ;
#165 = CARTESIAN_POINT ( 'NONE',  ( 0.0000000000000000000, 0.0000000000000000000, 0.0000000000000000000 ) ) ;
#166 = APPROVAL ( #6, 'UNSPECIFIED' ) ;
#167 = ORIENTED_EDGE ( 'NONE', *, *, #156, .F. ) ;
#168 = DIRECTION ( 'NONE',  ( 1.000000000000000000, 0.0000000000000000000, 0.0000000000000000000 ) ) ;
#169 = CALENDAR_DATE ( 2020, 7, 10 ) ;
#170 = ADVANCED_FACE ( 'NONE', ( #89 ), #99, .F. ) ;
#171 = CC_DESIGN_PERSON_AND_ORGANIZATION_ASSIGNMENT ( #145, #85, ( #52 ) ) ;
#172 = APPROVAL_PERSON_ORGANIZATION ( #90, #146, #96 ) ;
#173 = EDGE_LOOP ( 'NONE', ( #149, #30, #112, #39 ) ) ;
#174 = CC_DESIGN_PERSON_AND_ORGANIZATION_ASSIGNMENT ( #49, #7, ( #51 ) ) ;
#175 = DATE_AND_TIME ( #137, #60 ) ;
ENDSEC;
END-ISO-10303-21;
