ISO-10303-21;
HEADER;
FILE_DESCRIPTION (( 'STEP AP203' ),
    '1' );
FILE_NAME ('Web Model 14957_14983.step',
    '2020-07-27T18:29:15',
    ( '' ),
    ( '' ),
    'SwSTEP 2.0',
    'SolidWorks 2018',
    '' );
FILE_SCHEMA (( 'CONFIG_CONTROL_DESIGN' ));
ENDSEC;

DATA;
#1 = VERTEX_POINT ( 'NONE', #36 ) ;
#2 = APPLICATION_PROTOCOL_DEFINITION ( 'international standard', 'config_control_design', 1994, #78 ) ;
#3 = MECHANICAL_CONTEXT ( 'NONE', #78, 'mechanical' ) ;
#4 = CC_DESIGN_DATE_AND_TIME_ASSIGNMENT ( #103, #58, ( #171 ) ) ;
#5 = ADVANCED_FACE ( 'NONE', ( #107 ), #51, .T. ) ;
#6 = PERSON_AND_ORGANIZATION_ROLE ( 'classification_officer' ) ;
#7 = CARTESIAN_POINT ( 'NONE',  ( 1.000000000000000000, 6.123233995736766282E-16, -5.000000000000000000 ) ) ;
#8 = CC_DESIGN_PERSON_AND_ORGANIZATION_ASSIGNMENT ( #143, #57, ( #149 ) ) ;
#9 = APPROVAL ( #31, 'UNSPECIFIED' ) ;
#10 = PERSON_AND_ORGANIZATION ( #123, #44 ) ;
#11 = DIRECTION ( 'NONE',  ( 0.0000000000000000000, 0.0000000000000000000, -1.000000000000000000 ) ) ;
#12 = DIRECTION ( 'NONE',  ( 0.0000000000000000000, 0.0000000000000000000, -1.000000000000000000 ) ) ;
#13 = CLOSED_SHELL ( 'NONE', ( #34, #5, #93, #112 ) ) ;
#14 = PERSON_AND_ORGANIZATION ( #123, #44 ) ;
#15 = AXIS2_PLACEMENT_3D ( 'NONE', #47, #146, #138 ) ;
#16 = CIRCLE ( 'NONE', #163, 5.000000000000000000 ) ;
#17 = ORIENTED_EDGE ( 'NONE', *, *, #40, .T. ) ;
#18 = CC_DESIGN_PERSON_AND_ORGANIZATION_ASSIGNMENT ( #14, #113, ( #149 ) ) ;
#19 = CC_DESIGN_APPROVAL ( #105, ( #75 ) ) ;
#20 = DESIGN_CONTEXT ( 'detailed design', #81, 'design' ) ;
#21 = DIRECTION ( 'NONE',  ( 0.0000000000000000000, 0.0000000000000000000, -1.000000000000000000 ) ) ;
#22 =( NAMED_UNIT ( * ) PLANE_ANGLE_UNIT ( ) SI_UNIT ( $, .RADIAN. ) );
#23 = EDGE_LOOP ( 'NONE', ( #87, #53 ) ) ;
#24 = CALENDAR_DATE ( 2020, 27, 7 ) ;
#25 = FACE_OUTER_BOUND ( 'NONE', #134, .T. ) ;
#26 = EDGE_CURVE ( 'NONE', #154, #136, #111, .T. ) ;
#27 = COORDINATED_UNIVERSAL_TIME_OFFSET ( 5, 0, .BEHIND. ) ;
#28 = PLANE ( 'NONE',  #165 ) ;
#29 = EDGE_LOOP ( 'NONE', ( #167, #147 ) ) ;
#30 = ORIENTED_EDGE ( 'NONE', *, *, #145, .T. ) ;
#31 = APPROVAL_STATUS ( 'not_yet_approved' ) ;
#32 = AXIS2_PLACEMENT_3D ( 'NONE', #173, #119, #12 ) ;
#33 = DATE_TIME_ROLE ( 'creation_date' ) ;
#34 = ADVANCED_FACE ( 'NONE', ( #25 ), #106, .T. ) ;
#35 =( NAMED_UNIT ( * ) SI_UNIT ( $, .STERADIAN. ) SOLID_ANGLE_UNIT ( ) );
#36 = CARTESIAN_POINT ( 'NONE',  ( -1.000000000000000000, 0.0000000000000000000, 5.000000000000000000 ) ) ;
#37 = CALENDAR_DATE ( 2020, 27, 7 ) ;
#38 = MANIFOLD_SOLID_BREP ( 'Boss-Extrude1', #13 ) ;
#39 = CALENDAR_DATE ( 2020, 27, 7 ) ;
#40 = EDGE_CURVE ( 'NONE', #1, #48, #92, .T. ) ;
#41 = PERSON_AND_ORGANIZATION ( #123, #44 ) ;
#42 = AXIS2_PLACEMENT_3D ( 'NONE', #70, #61, #82 ) ;
#43 = DIRECTION ( 'NONE',  ( 1.000000000000000000, 0.0000000000000000000, 0.0000000000000000000 ) ) ;
#44 = ORGANIZATION ( 'UNSPECIFIED', 'UNSPECIFIED', '' ) ;
#45 = CARTESIAN_POINT ( 'NONE',  ( 1.000000000000000000, 0.0000000000000000000, 5.000000000000000000 ) ) ;
#46 = DIRECTION ( 'NONE',  ( 1.000000000000000000, 0.0000000000000000000, 0.0000000000000000000 ) ) ;
#47 = CARTESIAN_POINT ( 'NONE',  ( -1.000000000000000000, 0.0000000000000000000, 0.0000000000000000000 ) ) ;
#48 = VERTEX_POINT ( 'NONE', #141 ) ;
#49 = AXIS2_PLACEMENT_3D ( 'NONE', #50, #160, #11 ) ;
#50 = CARTESIAN_POINT ( 'NONE',  ( 1.000000000000000000, 0.0000000000000000000, 0.0000000000000000000 ) ) ;
#51 = CYLINDRICAL_SURFACE ( 'NONE', #158, 5.000000000000000000 ) ;
#52 = PLANE ( 'NONE',  #15 ) ;
#53 = ORIENTED_EDGE ( 'NONE', *, *, #84, .F. ) ;
#54 = LOCAL_TIME ( 14, 29, 15.00000000000000000, #157 ) ;
#55 = VECTOR ( 'NONE', #129, 1000.000000000000000 ) ;
#56 = LOCAL_TIME ( 14, 29, 15.00000000000000000, #162 ) ;
#57 = PERSON_AND_ORGANIZATION_ROLE ( 'creator' ) ;
#58 = DATE_TIME_ROLE ( 'classification_date' ) ;
#59 = CARTESIAN_POINT ( 'NONE',  ( 1.000000000000000000, 6.123233995736766282E-16, -5.000000000000000000 ) ) ;
#60 = UNCERTAINTY_MEASURE_WITH_UNIT (LENGTH_MEASURE( 1.000000000000000082E-05 ), #169, 'distance_accuracy_value', 'NONE');
#61 = DIRECTION ( 'NONE',  ( -1.000000000000000000, -0.0000000000000000000, -0.0000000000000000000 ) ) ;
#62 = EDGE_LOOP ( 'NONE', ( #99, #63, #101, #17 ) ) ;
#63 = ORIENTED_EDGE ( 'NONE', *, *, #174, .F. ) ;
#64 = APPROVAL_PERSON_ORGANIZATION ( #156, #105, #155 ) ;
#65 = SHAPE_DEFINITION_REPRESENTATION ( #80, #128 ) ;
#66 = APPROVAL_DATE_TIME ( #77, #9 ) ;
#67 = CARTESIAN_POINT ( 'NONE',  ( 1.000000000000000000, 0.0000000000000000000, 0.0000000000000000000 ) ) ;
#68 = LINE ( 'NONE', #59, #139 ) ;
#69 = DIRECTION ( 'NONE',  ( 0.0000000000000000000, 0.0000000000000000000, 1.000000000000000000 ) ) ;
#70 = CARTESIAN_POINT ( 'NONE',  ( 1.000000000000000000, 0.0000000000000000000, 0.0000000000000000000 ) ) ;
#71 = LOCAL_TIME ( 14, 29, 15.00000000000000000, #74 ) ;
#72 = DIRECTION ( 'NONE',  ( -1.000000000000000000, -0.0000000000000000000, -0.0000000000000000000 ) ) ;
#73 = CARTESIAN_POINT ( 'NONE',  ( 1.000000000000000000, 0.0000000000000000000, 5.000000000000000000 ) ) ;
#74 = COORDINATED_UNIVERSAL_TIME_OFFSET ( 5, 0, .BEHIND. ) ;
#75 = PRODUCT_DEFINITION ( 'UNKNOWN', '', #149, #20 ) ;
#76 = FACE_OUTER_BOUND ( 'NONE', #23, .T. ) ;
#77 = DATE_AND_TIME ( #37, #54 ) ;
#78 = APPLICATION_CONTEXT ( 'configuration controlled 3d designs of mechanical parts and assemblies' ) ;
#79 = APPROVAL_ROLE ( '' ) ;
#80 = PRODUCT_DEFINITION_SHAPE ( 'NONE', 'NONE',  #75 ) ;
#81 = APPLICATION_CONTEXT ( 'configuration controlled 3d designs of mechanical parts and assemblies' ) ;
#82 = DIRECTION ( 'NONE',  ( 0.0000000000000000000, 0.0000000000000000000, 1.000000000000000000 ) ) ;
#83 = COORDINATED_UNIVERSAL_TIME_OFFSET ( 5, 0, .BEHIND. ) ;
#84 = EDGE_CURVE ( 'NONE', #48, #1, #125, .T. ) ;
#85 = PERSON_AND_ORGANIZATION ( #123, #44 ) ;
#86 = PRODUCT ( 'Web Model 14957_14983', 'Web Model 14957_14983', '', ( #3 ) ) ;
#87 = ORIENTED_EDGE ( 'NONE', *, *, #40, .F. ) ;
#88 = CC_DESIGN_PERSON_AND_ORGANIZATION_ASSIGNMENT ( #10, #6, ( #171 ) ) ;
#89 =( GEOMETRIC_REPRESENTATION_CONTEXT ( 3 ) GLOBAL_UNCERTAINTY_ASSIGNED_CONTEXT ( ( #60 ) ) GLOBAL_UNIT_ASSIGNED_CONTEXT ( ( #169, #22, #35 ) ) REPRESENTATION_CONTEXT ( 'NONE', 'WORKASPACE' ) );
#90 = SECURITY_CLASSIFICATION_LEVEL ( 'unclassified' ) ;
#91 = CARTESIAN_POINT ( 'NONE',  ( 0.0000000000000000000, 0.0000000000000000000, 0.0000000000000000000 ) ) ;
#92 = CIRCLE ( 'NONE', #172, 5.000000000000000000 ) ;
#93 = ADVANCED_FACE ( 'NONE', ( #161 ), #28, .T. ) ;
#94 = PERSON_AND_ORGANIZATION_ROLE ( 'creator' ) ;
#95 = APPROVAL_DATE_TIME ( #102, #108 ) ;
#96 = PERSON_AND_ORGANIZATION ( #123, #44 ) ;
#97 = DIRECTION ( 'NONE',  ( 1.000000000000000000, 0.0000000000000000000, 0.0000000000000000000 ) ) ;
#98 = CARTESIAN_POINT ( 'NONE',  ( -1.000000000000000000, 0.0000000000000000000, 0.0000000000000000000 ) ) ;
#99 = ORIENTED_EDGE ( 'NONE', *, *, #145, .F. ) ;
#100 = CARTESIAN_POINT ( 'NONE',  ( 1.000000000000000000, 0.0000000000000000000, 0.0000000000000000000 ) ) ;
#101 = ORIENTED_EDGE ( 'NONE', *, *, #153, .T. ) ;
#102 = DATE_AND_TIME ( #122, #142 ) ;
#103 = DATE_AND_TIME ( #39, #71 ) ;
#104 = CC_DESIGN_APPROVAL ( #9, ( #149 ) ) ;
#105 = APPROVAL ( #152, 'UNSPECIFIED' ) ;
#106 = CYLINDRICAL_SURFACE ( 'NONE', #42, 5.000000000000000000 ) ;
#107 = FACE_OUTER_BOUND ( 'NONE', #62, .T. ) ;
#108 = APPROVAL ( #168, 'UNSPECIFIED' ) ;
#109 = LOCAL_TIME ( 14, 29, 15.00000000000000000, #83 ) ;
#110 = DIRECTION ( 'NONE',  ( -1.000000000000000000, -0.0000000000000000000, -0.0000000000000000000 ) ) ;
#111 = CIRCLE ( 'NONE', #49, 5.000000000000000000 ) ;
#112 = ADVANCED_FACE ( 'NONE', ( #76 ), #52, .F. ) ;
#113 = PERSON_AND_ORGANIZATION_ROLE ( 'design_supplier' ) ;
#114 = APPROVAL_ROLE ( '' ) ;
#115 = APPROVAL_PERSON_ORGANIZATION ( #96, #108, #114 ) ;
#116 = DATE_AND_TIME ( #121, #109 ) ;
#117 = PRODUCT_RELATED_PRODUCT_CATEGORY ( 'detail', '', ( #86 ) ) ;
#118 = CC_DESIGN_PERSON_AND_ORGANIZATION_ASSIGNMENT ( #41, #94, ( #75 ) ) ;
#119 = DIRECTION ( 'NONE',  ( 1.000000000000000000, 0.0000000000000000000, 0.0000000000000000000 ) ) ;
#120 = CC_DESIGN_APPROVAL ( #108, ( #171 ) ) ;
#121 = CALENDAR_DATE ( 2020, 27, 7 ) ;
#122 = CALENDAR_DATE ( 2020, 27, 7 ) ;
#123 = PERSON ( 'UNSPECIFIED', 'UNSPECIFIED', 'UNSPECIFIED', ('UNSPECIFIED'), ('UNSPECIFIED'), ('UNSPECIFIED') ) ;
#124 = PERSON_AND_ORGANIZATION ( #123, #44 ) ;
#125 = CIRCLE ( 'NONE', #32, 5.000000000000000000 ) ;
#126 = APPLICATION_PROTOCOL_DEFINITION ( 'international standard', 'config_control_design', 1994, #81 ) ;
#127 = CC_DESIGN_DATE_AND_TIME_ASSIGNMENT ( #150, #33, ( #75 ) ) ;
#128 = ADVANCED_BREP_SHAPE_REPRESENTATION ( 'Web Model 14957_14983', ( #38, #130 ), #89 ) ;
#129 = DIRECTION ( 'NONE',  ( -1.000000000000000000, -0.0000000000000000000, -0.0000000000000000000 ) ) ;
#130 = AXIS2_PLACEMENT_3D ( 'NONE', #91, #69, #46 ) ;
#131 = ORIENTED_EDGE ( 'NONE', *, *, #26, .F. ) ;
#132 = DIRECTION ( 'NONE',  ( 0.0000000000000000000, 0.0000000000000000000, -1.000000000000000000 ) ) ;
#133 = DIRECTION ( 'NONE',  ( 0.0000000000000000000, 0.0000000000000000000, -1.000000000000000000 ) ) ;
#134 = EDGE_LOOP ( 'NONE', ( #131, #30, #151, #140 ) ) ;
#135 = DIRECTION ( 'NONE',  ( 1.000000000000000000, 0.0000000000000000000, 0.0000000000000000000 ) ) ;
#136 = VERTEX_POINT ( 'NONE', #73 ) ;
#137 = CC_DESIGN_PERSON_AND_ORGANIZATION_ASSIGNMENT ( #85, #166, ( #86 ) ) ;
#138 = DIRECTION ( 'NONE',  ( 0.0000000000000000000, 0.0000000000000000000, -1.000000000000000000 ) ) ;
#139 = VECTOR ( 'NONE', #110, 1000.000000000000000 ) ;
#140 = ORIENTED_EDGE ( 'NONE', *, *, #153, .F. ) ;
#141 = CARTESIAN_POINT ( 'NONE',  ( -1.000000000000000000, 6.123233995736766282E-16, -5.000000000000000000 ) ) ;
#142 = LOCAL_TIME ( 14, 29, 15.00000000000000000, #27 ) ;
#143 = PERSON_AND_ORGANIZATION ( #123, #44 ) ;
#144 = CARTESIAN_POINT ( 'NONE',  ( 1.000000000000000000, 0.0000000000000000000, 0.0000000000000000000 ) ) ;
#145 = EDGE_CURVE ( 'NONE', #154, #48, #68, .T. ) ;
#146 = DIRECTION ( 'NONE',  ( 1.000000000000000000, 0.0000000000000000000, 0.0000000000000000000 ) ) ;
#147 = ORIENTED_EDGE ( 'NONE', *, *, #26, .T. ) ;
#148 = CC_DESIGN_SECURITY_CLASSIFICATION ( #171, ( #149 ) ) ;
#149 = PRODUCT_DEFINITION_FORMATION_WITH_SPECIFIED_SOURCE ( 'ANY', '', #86, .NOT_KNOWN. ) ;
#150 = DATE_AND_TIME ( #24, #56 ) ;
#151 = ORIENTED_EDGE ( 'NONE', *, *, #84, .T. ) ;
#152 = APPROVAL_STATUS ( 'not_yet_approved' ) ;
#153 = EDGE_CURVE ( 'NONE', #136, #1, #159, .T. ) ;
#154 = VERTEX_POINT ( 'NONE', #7 ) ;
#155 = APPROVAL_ROLE ( '' ) ;
#156 = PERSON_AND_ORGANIZATION ( #123, #44 ) ;
#157 = COORDINATED_UNIVERSAL_TIME_OFFSET ( 5, 0, .BEHIND. ) ;
#158 = AXIS2_PLACEMENT_3D ( 'NONE', #144, #72, #170 ) ;
#159 = LINE ( 'NONE', #45, #55 ) ;
#160 = DIRECTION ( 'NONE',  ( 1.000000000000000000, 0.0000000000000000000, 0.0000000000000000000 ) ) ;
#161 = FACE_OUTER_BOUND ( 'NONE', #29, .T. ) ;
#162 = COORDINATED_UNIVERSAL_TIME_OFFSET ( 5, 0, .BEHIND. ) ;
#163 = AXIS2_PLACEMENT_3D ( 'NONE', #67, #43, #21 ) ;
#164 = APPROVAL_DATE_TIME ( #116, #105 ) ;
#165 = AXIS2_PLACEMENT_3D ( 'NONE', #100, #135, #133 ) ;
#166 = PERSON_AND_ORGANIZATION_ROLE ( 'design_owner' ) ;
#167 = ORIENTED_EDGE ( 'NONE', *, *, #174, .T. ) ;
#168 = APPROVAL_STATUS ( 'not_yet_approved' ) ;
#169 =( LENGTH_UNIT ( ) NAMED_UNIT ( * ) SI_UNIT ( .MILLI., .METRE. ) );
#170 = DIRECTION ( 'NONE',  ( 0.0000000000000000000, 0.0000000000000000000, 1.000000000000000000 ) ) ;
#171 = SECURITY_CLASSIFICATION ( '', '', #90 ) ;
#172 = AXIS2_PLACEMENT_3D ( 'NONE', #98, #97, #132 ) ;
#173 = CARTESIAN_POINT ( 'NONE',  ( -1.000000000000000000, 0.0000000000000000000, 0.0000000000000000000 ) ) ;
#174 = EDGE_CURVE ( 'NONE', #136, #154, #16, .T. ) ;
#175 = APPROVAL_PERSON_ORGANIZATION ( #124, #9, #79 ) ;
ENDSEC;
END-ISO-10303-21;
