ISO-10303-21;
HEADER;
FILE_DESCRIPTION (( 'STEP AP203' ),
    '1' );
FILE_NAME ('Web Model 48858_48858.step',
    '2017-03-01T20:57:08',
    ( '' ),
    ( '' ),
    'SwSTEP 2.0',
    'SolidWorks 2016',
    '' );
FILE_SCHEMA (( 'CONFIG_CONTROL_DESIGN' ));
ENDSEC;

DATA;
#1 = CIRCLE ( 'NONE', #153, 63.50000000000000000 ) ;
#2 = PLANE ( 'NONE',  #60 ) ;
#3 = AXIS2_PLACEMENT_3D ( 'NONE', #134, #71, #173 ) ;
#4 = DIRECTION ( 'NONE',  ( -0.0000000000000000000, -0.0000000000000000000, -1.000000000000000000 ) ) ;
#5 = COORDINATED_UNIVERSAL_TIME_OFFSET ( 5, 0, .BEHIND. ) ;
#6 = DIRECTION ( 'NONE',  ( 1.000000000000000000, 0.0000000000000000000, 0.0000000000000000000 ) ) ;
#7 = CIRCLE ( 'NONE', #69, 63.50000000000000000 ) ;
#8 = APPLICATION_CONTEXT ( 'configuration controlled 3d designs of mechanical parts and assemblies' ) ;
#9 = CARTESIAN_POINT ( 'NONE',  ( 0.0000000000000000000, 0.0000000000000000000, 3.000000000000000000 ) ) ;
#10 = ORIENTED_EDGE ( 'NONE', *, *, #130, .F. ) ;
#11 = CC_DESIGN_PERSON_AND_ORGANIZATION_ASSIGNMENT ( #36, #124, ( #83 ) ) ;
#12 = EDGE_LOOP ( 'NONE', ( #62, #162 ) ) ;
#13 = VECTOR ( 'NONE', #20, 1000.000000000000000 ) ;
#14 = ADVANCED_FACE ( 'NONE', ( #114 ), #78, .T. ) ;
#15 = AXIS2_PLACEMENT_3D ( 'NONE', #116, #175, #102 ) ;
#16 = PERSON_AND_ORGANIZATION ( #104, #168 ) ;
#17 = APPROVAL_STATUS ( 'not_yet_approved' ) ;
#18 = DIRECTION ( 'NONE',  ( -1.000000000000000000, 0.0000000000000000000, 0.0000000000000000000 ) ) ;
#19 = DATE_AND_TIME ( #55, #159 ) ;
#20 = DIRECTION ( 'NONE',  ( -0.0000000000000000000, -0.0000000000000000000, -1.000000000000000000 ) ) ;
#21 = ORIENTED_EDGE ( 'NONE', *, *, #149, .F. ) ;
#22 = APPLICATION_PROTOCOL_DEFINITION ( 'international standard', 'config_control_design', 1994, #8 ) ;
#23 = AXIS2_PLACEMENT_3D ( 'NONE', #9, #156, #6 ) ;
#24 = CC_DESIGN_SECURITY_CLASSIFICATION ( #89, ( #83 ) ) ;
#25 = EDGE_LOOP ( 'NONE', ( #141, #155, #146, #10 ) ) ;
#26 = PERSON_AND_ORGANIZATION ( #104, #168 ) ;
#27 = LINE ( 'NONE', #80, #13 ) ;
#28 = SECURITY_CLASSIFICATION_LEVEL ( 'unclassified' ) ;
#29 = ADVANCED_FACE ( 'NONE', ( #166 ), #2, .T. ) ;
#30 = APPROVAL_ROLE ( '' ) ;
#31 = LOCAL_TIME ( 15, 57, 8.000000000000000000, #123 ) ;
#32 = ADVANCED_FACE ( 'NONE', ( #101 ), #138, .F. ) ;
#33 = PERSON_AND_ORGANIZATION_ROLE ( 'creator' ) ;
#34 = DIRECTION ( 'NONE',  ( -0.0000000000000000000, -0.0000000000000000000, -1.000000000000000000 ) ) ;
#35 = AXIS2_PLACEMENT_3D ( 'NONE', #152, #4, #163 ) ;
#36 = PERSON_AND_ORGANIZATION ( #104, #168 ) ;
#37 = CARTESIAN_POINT ( 'NONE',  ( 0.0000000000000000000, 0.0000000000000000000, 3.000000000000000000 ) ) ;
#38 =( NAMED_UNIT ( * ) SI_UNIT ( $, .STERADIAN. ) SOLID_ANGLE_UNIT ( ) );
#39 = APPROVAL_DATE_TIME ( #148, #86 ) ;
#40 =( NAMED_UNIT ( * ) PLANE_ANGLE_UNIT ( ) SI_UNIT ( $, .RADIAN. ) );
#41 = CC_DESIGN_PERSON_AND_ORGANIZATION_ASSIGNMENT ( #16, #115, ( #89 ) ) ;
#42 = PERSON_AND_ORGANIZATION ( #104, #168 ) ;
#43 = CC_DESIGN_PERSON_AND_ORGANIZATION_ASSIGNMENT ( #42, #100, ( #83 ) ) ;
#44 = AXIS2_PLACEMENT_3D ( 'NONE', #109, #144, #91 ) ;
#45 = AXIS2_PLACEMENT_3D ( 'NONE', #56, #34, #18 ) ;
#46 = DATE_TIME_ROLE ( 'classification_date' ) ;
#47 = APPLICATION_PROTOCOL_DEFINITION ( 'international standard', 'config_control_design', 1994, #112 ) ;
#48 = FACE_OUTER_BOUND ( 'NONE', #25, .T. ) ;
#49 = LOCAL_TIME ( 15, 57, 8.000000000000000000, #5 ) ;
#50 = CARTESIAN_POINT ( 'NONE',  ( -63.50000000000000000, 0.0000000000000000000, 0.0000000000000000000 ) ) ;
#51 = ORIENTED_EDGE ( 'NONE', *, *, #149, .T. ) ;
#52 =( LENGTH_UNIT ( ) NAMED_UNIT ( * ) SI_UNIT ( .MILLI., .METRE. ) );
#53 = EDGE_CURVE ( 'NONE', #127, #167, #1, .T. ) ;
#54 = EDGE_LOOP ( 'NONE', ( #97, #21, #121, #106 ) ) ;
#55 = CALENDAR_DATE ( 2017, 1, 3 ) ;
#56 = CARTESIAN_POINT ( 'NONE',  ( 0.0000000000000000000, 0.0000000000000000000, 3.000000000000000000 ) ) ;
#57 = PRODUCT_DEFINITION_SHAPE ( 'NONE', 'NONE',  #98 ) ;
#58 = CARTESIAN_POINT ( 'NONE',  ( 0.0000000000000000000, 0.0000000000000000000, 3.000000000000000000 ) ) ;
#59 = CC_DESIGN_PERSON_AND_ORGANIZATION_ASSIGNMENT ( #72, #33, ( #98 ) ) ;
#60 = AXIS2_PLACEMENT_3D ( 'NONE', #58, #75, #154 ) ;
#61 = CARTESIAN_POINT ( 'NONE',  ( 0.0000000000000000000, 0.0000000000000000000, 0.0000000000000000000 ) ) ;
#62 = ORIENTED_EDGE ( 'NONE', *, *, #53, .F. ) ;
#63 = CARTESIAN_POINT ( 'NONE',  ( 63.50000000000000000, 7.776507174585693000E-015, 0.0000000000000000000 ) ) ;
#64 = CIRCLE ( 'NONE', #23, 63.50000000000000000 ) ;
#65 = APPROVAL_PERSON_ORGANIZATION ( #172, #95, #30 ) ;
#66 = CYLINDRICAL_SURFACE ( 'NONE', #45, 63.50000000000000000 ) ;
#67 = APPROVAL ( #87, 'UNSPECIFIED' ) ;
#68 = EDGE_CURVE ( 'NONE', #167, #127, #125, .T. ) ;
#69 = AXIS2_PLACEMENT_3D ( 'NONE', #37, #108, #128 ) ;
#70 = APPROVAL_ROLE ( '' ) ;
#71 = DIRECTION ( 'NONE',  ( 0.0000000000000000000, 0.0000000000000000000, 1.000000000000000000 ) ) ;
#72 = PERSON_AND_ORGANIZATION ( #104, #168 ) ;
#73 = APPROVAL_ROLE ( '' ) ;
#74 = SHAPE_DEFINITION_REPRESENTATION ( #57, #160 ) ;
#75 = DIRECTION ( 'NONE',  ( 0.0000000000000000000, 0.0000000000000000000, 1.000000000000000000 ) ) ;
#76 = CALENDAR_DATE ( 2017, 1, 3 ) ;
#77 = CARTESIAN_POINT ( 'NONE',  ( 63.50000000000000000, 7.776507174585693000E-015, 3.000000000000000000 ) ) ;
#78 = CYLINDRICAL_SURFACE ( 'NONE', #35, 63.50000000000000000 ) ;
#79 = PERSON_AND_ORGANIZATION ( #104, #168 ) ;
#80 = CARTESIAN_POINT ( 'NONE',  ( -63.50000000000000000, 0.0000000000000000000, 3.000000000000000000 ) ) ;
#81 = ADVANCED_FACE ( 'NONE', ( #48 ), #66, .T. ) ;
#82 = CC_DESIGN_PERSON_AND_ORGANIZATION_ASSIGNMENT ( #137, #161, ( #94 ) ) ;
#83 = PRODUCT_DEFINITION_FORMATION_WITH_SPECIFIED_SOURCE ( 'ANY', '', #94, .NOT_KNOWN. ) ;
#84 = CC_DESIGN_APPROVAL ( #86, ( #89 ) ) ;
#85 = COORDINATED_UNIVERSAL_TIME_OFFSET ( 5, 0, .BEHIND. ) ;
#86 = APPROVAL ( #174, 'UNSPECIFIED' ) ;
#87 = APPROVAL_STATUS ( 'not_yet_approved' ) ;
#88 = CARTESIAN_POINT ( 'NONE',  ( 63.50000000000000000, 7.776507174585693000E-015, 3.000000000000000000 ) ) ;
#89 = SECURITY_CLASSIFICATION ( '', '', #28 ) ;
#90 = VECTOR ( 'NONE', #107, 1000.000000000000000 ) ;
#91 = DIRECTION ( 'NONE',  ( 1.000000000000000000, 0.0000000000000000000, 0.0000000000000000000 ) ) ;
#92 = PRODUCT_RELATED_PRODUCT_CATEGORY ( 'detail', '', ( #94 ) ) ;
#93 = DIRECTION ( 'NONE',  ( 0.0000000000000000000, 0.0000000000000000000, 1.000000000000000000 ) ) ;
#94 = PRODUCT ( 'Web Model 48858_48858', 'Web Model 48858_48858', '', ( #164 ) ) ;
#95 = APPROVAL ( #17, 'UNSPECIFIED' ) ;
#96 = UNCERTAINTY_MEASURE_WITH_UNIT (LENGTH_MEASURE( 1.000000000000000100E-005 ), #52, 'distance_accuracy_value', 'NONE');
#97 = ORIENTED_EDGE ( 'NONE', *, *, #110, .F. ) ;
#98 = PRODUCT_DEFINITION ( 'UNKNOWN', '', #83, #157 ) ;
#99 = EDGE_CURVE ( 'NONE', #105, #151, #64, .T. ) ;
#100 = PERSON_AND_ORGANIZATION_ROLE ( 'creator' ) ;
#101 = FACE_OUTER_BOUND ( 'NONE', #12, .T. ) ;
#102 = DIRECTION ( 'NONE',  ( 1.000000000000000000, 0.0000000000000000000, -0.0000000000000000000 ) ) ;
#103 = COORDINATED_UNIVERSAL_TIME_OFFSET ( 5, 0, .BEHIND. ) ;
#104 = PERSON ( 'UNSPECIFIED', 'UNSPECIFIED', 'UNSPECIFIED', ('UNSPECIFIED'), ('UNSPECIFIED'), ('UNSPECIFIED') ) ;
#105 = VERTEX_POINT ( 'NONE', #88 ) ;
#106 = ORIENTED_EDGE ( 'NONE', *, *, #53, .T. ) ;
#107 = DIRECTION ( 'NONE',  ( -0.0000000000000000000, -0.0000000000000000000, -1.000000000000000000 ) ) ;
#108 = DIRECTION ( 'NONE',  ( 0.0000000000000000000, 0.0000000000000000000, 1.000000000000000000 ) ) ;
#109 = CARTESIAN_POINT ( 'NONE',  ( 0.0000000000000000000, 0.0000000000000000000, 0.0000000000000000000 ) ) ;
#110 = EDGE_CURVE ( 'NONE', #105, #167, #147, .T. ) ;
#111 = APPROVAL_DATE_TIME ( #140, #67 ) ;
#112 = APPLICATION_CONTEXT ( 'configuration controlled 3d designs of mechanical parts and assemblies' ) ;
#113 = CALENDAR_DATE ( 2017, 1, 3 ) ;
#114 = FACE_OUTER_BOUND ( 'NONE', #54, .T. ) ;
#115 = PERSON_AND_ORGANIZATION_ROLE ( 'classification_officer' ) ;
#116 = CARTESIAN_POINT ( 'NONE',  ( 0.0000000000000000000, 0.0000000000000000000, 0.0000000000000000000 ) ) ;
#117 = CC_DESIGN_APPROVAL ( #95, ( #83 ) ) ;
#118 = APPROVAL_DATE_TIME ( #135, #95 ) ;
#119 = LOCAL_TIME ( 15, 57, 8.000000000000000000, #171 ) ;
#120 = CC_DESIGN_DATE_AND_TIME_ASSIGNMENT ( #19, #46, ( #89 ) ) ;
#121 = ORIENTED_EDGE ( 'NONE', *, *, #130, .T. ) ;
#122 = MANIFOLD_SOLID_BREP ( 'Boss-Extrude1', #170 ) ;
#123 = COORDINATED_UNIVERSAL_TIME_OFFSET ( 5, 0, .BEHIND. ) ;
#124 = PERSON_AND_ORGANIZATION_ROLE ( 'design_supplier' ) ;
#125 = CIRCLE ( 'NONE', #3, 63.50000000000000000 ) ;
#126 = LOCAL_TIME ( 15, 57, 8.000000000000000000, #103 ) ;
#127 = VERTEX_POINT ( 'NONE', #50 ) ;
#128 = DIRECTION ( 'NONE',  ( 1.000000000000000000, 0.0000000000000000000, 0.0000000000000000000 ) ) ;
#129 = CC_DESIGN_APPROVAL ( #67, ( #98 ) ) ;
#130 = EDGE_CURVE ( 'NONE', #151, #127, #27, .T. ) ;
#131 = CC_DESIGN_DATE_AND_TIME_ASSIGNMENT ( #145, #136, ( #98 ) ) ;
#132 = APPROVAL_PERSON_ORGANIZATION ( #26, #86, #73 ) ;
#133 = ORIENTED_EDGE ( 'NONE', *, *, #99, .T. ) ;
#134 = CARTESIAN_POINT ( 'NONE',  ( 0.0000000000000000000, 0.0000000000000000000, 0.0000000000000000000 ) ) ;
#135 = DATE_AND_TIME ( #76, #49 ) ;
#136 = DATE_TIME_ROLE ( 'creation_date' ) ;
#137 = PERSON_AND_ORGANIZATION ( #104, #168 ) ;
#138 = PLANE ( 'NONE',  #15 ) ;
#139 =( GEOMETRIC_REPRESENTATION_CONTEXT ( 3 ) GLOBAL_UNCERTAINTY_ASSIGNED_CONTEXT ( ( #96 ) ) GLOBAL_UNIT_ASSIGNED_CONTEXT ( ( #52, #40, #38 ) ) REPRESENTATION_CONTEXT ( 'NONE', 'WORKASPACE' ) );
#140 = DATE_AND_TIME ( #150, #31 ) ;
#141 = ORIENTED_EDGE ( 'NONE', *, *, #99, .F. ) ;
#142 = EDGE_LOOP ( 'NONE', ( #51, #133 ) ) ;
#143 = APPROVAL_PERSON_ORGANIZATION ( #79, #67, #70 ) ;
#144 = DIRECTION ( 'NONE',  ( 0.0000000000000000000, 0.0000000000000000000, 1.000000000000000000 ) ) ;
#145 = DATE_AND_TIME ( #113, #119 ) ;
#146 = ORIENTED_EDGE ( 'NONE', *, *, #68, .T. ) ;
#147 = LINE ( 'NONE', #77, #90 ) ;
#148 = DATE_AND_TIME ( #169, #126 ) ;
#149 = EDGE_CURVE ( 'NONE', #151, #105, #7, .T. ) ;
#150 = CALENDAR_DATE ( 2017, 1, 3 ) ;
#151 = VERTEX_POINT ( 'NONE', #158 ) ;
#152 = CARTESIAN_POINT ( 'NONE',  ( 0.0000000000000000000, 0.0000000000000000000, 3.000000000000000000 ) ) ;
#153 = AXIS2_PLACEMENT_3D ( 'NONE', #61, #93, #165 ) ;
#154 = DIRECTION ( 'NONE',  ( 1.000000000000000000, 0.0000000000000000000, -0.0000000000000000000 ) ) ;
#155 = ORIENTED_EDGE ( 'NONE', *, *, #110, .T. ) ;
#156 = DIRECTION ( 'NONE',  ( 0.0000000000000000000, 0.0000000000000000000, 1.000000000000000000 ) ) ;
#157 = DESIGN_CONTEXT ( 'detailed design', #112, 'design' ) ;
#158 = CARTESIAN_POINT ( 'NONE',  ( -63.50000000000000000, 0.0000000000000000000, 3.000000000000000000 ) ) ;
#159 = LOCAL_TIME ( 15, 57, 8.000000000000000000, #85 ) ;
#160 = ADVANCED_BREP_SHAPE_REPRESENTATION ( 'Web Model 48858_48858', ( #122, #44 ), #139 ) ;
#161 = PERSON_AND_ORGANIZATION_ROLE ( 'design_owner' ) ;
#162 = ORIENTED_EDGE ( 'NONE', *, *, #68, .F. ) ;
#163 = DIRECTION ( 'NONE',  ( -1.000000000000000000, 0.0000000000000000000, 0.0000000000000000000 ) ) ;
#164 = MECHANICAL_CONTEXT ( 'NONE', #8, 'mechanical' ) ;
#165 = DIRECTION ( 'NONE',  ( 1.000000000000000000, 0.0000000000000000000, 0.0000000000000000000 ) ) ;
#166 = FACE_OUTER_BOUND ( 'NONE', #142, .T. ) ;
#167 = VERTEX_POINT ( 'NONE', #63 ) ;
#168 = ORGANIZATION ( 'UNSPECIFIED', 'UNSPECIFIED', '' ) ;
#169 = CALENDAR_DATE ( 2017, 1, 3 ) ;
#170 = CLOSED_SHELL ( 'NONE', ( #81, #14, #29, #32 ) ) ;
#171 = COORDINATED_UNIVERSAL_TIME_OFFSET ( 5, 0, .BEHIND. ) ;
#172 = PERSON_AND_ORGANIZATION ( #104, #168 ) ;
#173 = DIRECTION ( 'NONE',  ( 1.000000000000000000, 0.0000000000000000000, 0.0000000000000000000 ) ) ;
#174 = APPROVAL_STATUS ( 'not_yet_approved' ) ;
#175 = DIRECTION ( 'NONE',  ( 0.0000000000000000000, 0.0000000000000000000, 1.000000000000000000 ) ) ;
ENDSEC;
END-ISO-10303-21;
