ISO-10303-21;
HEADER;
FILE_DESCRIPTION (( 'STEP AP203' ),
    '1' );
FILE_NAME ('Web Model 84464.STEP',
    '2017-02-01T15:46:07',
    ( '' ),
    ( '' ),
    'SwSTEP 2.0',
    'SolidWorks 2016',
    '' );
FILE_SCHEMA (( 'CONFIG_CONTROL_DESIGN' ));
ENDSEC;

DATA;
#1 = CALENDAR_DATE ( 2017, 1, 2 ) ;
#2 = ORIENTED_EDGE ( 'NONE', *, *, #6, .T. ) ;
#3 = CC_DESIGN_APPROVAL ( #159, ( #32 ) ) ;
#4 = FACE_OUTER_BOUND ( 'NONE', #138, .T. ) ;
#5 = COORDINATED_UNIVERSAL_TIME_OFFSET ( 5, 0, .BEHIND. ) ;
#6 = EDGE_CURVE ( 'NONE', #116, #48, #149, .T. ) ;
#7 = PERSON ( 'UNSPECIFIED', 'UNSPECIFIED', 'UNSPECIFIED', ('UNSPECIFIED'), ('UNSPECIFIED'), ('UNSPECIFIED') ) ;
#8 = CARTESIAN_POINT ( 'NONE',  ( -10.00000000000000200, 0.0000000000000000000, 0.0000000000000000000 ) ) ;
#9 = LINE ( 'NONE', #117, #27 ) ;
#10 = ADVANCED_FACE ( 'NONE', ( #4 ), #125, .F. ) ;
#11 = DIRECTION ( 'NONE',  ( 0.0000000000000000000, 0.0000000000000000000, 1.000000000000000000 ) ) ;
#12 = EDGE_LOOP ( 'NONE', ( #158, #14, #60, #88 ) ) ;
#13 = APPROVAL_STATUS ( 'not_yet_approved' ) ;
#14 = ORIENTED_EDGE ( 'NONE', *, *, #41, .F. ) ;
#15 = EDGE_CURVE ( 'NONE', #43, #164, #20, .T. ) ;
#16 = DATE_AND_TIME ( #18, #70 ) ;
#17 = LINE ( 'NONE', #131, #62 ) ;
#18 = CALENDAR_DATE ( 2017, 1, 2 ) ;
#19 = DIRECTION ( 'NONE',  ( -0.0000000000000000000, -0.0000000000000000000, -1.000000000000000000 ) ) ;
#20 = CIRCLE ( 'NONE', #61, 10.00000000000000200 ) ;
#21 = CARTESIAN_POINT ( 'NONE',  ( 0.0000000000000000000, 0.0000000000000000000, 2.000000000000000000 ) ) ;
#22 = DATE_AND_TIME ( #135, #86 ) ;
#23 = DIRECTION ( 'NONE',  ( 1.000000000000000000, 0.0000000000000000000, 0.0000000000000000000 ) ) ;
#24 =( NAMED_UNIT ( * ) PLANE_ANGLE_UNIT ( ) SI_UNIT ( $, .RADIAN. ) );
#25 = CC_DESIGN_PERSON_AND_ORGANIZATION_ASSIGNMENT ( #68, #137, ( #133 ) ) ;
#26 = APPROVAL_STATUS ( 'not_yet_approved' ) ;
#27 = VECTOR ( 'NONE', #36, 1000.000000000000000 ) ;
#28 = FACE_OUTER_BOUND ( 'NONE', #69, .T. ) ;
#29 = CALENDAR_DATE ( 2017, 1, 2 ) ;
#30 = CC_DESIGN_PERSON_AND_ORGANIZATION_ASSIGNMENT ( #141, #83, ( #133 ) ) ;
#31 = PRODUCT ( 'Web Model 84464', 'Web Model 84464', '', ( #136 ) ) ;
#32 = SECURITY_CLASSIFICATION ( '', '', #97 ) ;
#33 = CYLINDRICAL_SURFACE ( 'NONE', #108, 10.00000000000000200 ) ;
#34 = CALENDAR_DATE ( 2017, 1, 2 ) ;
#35 = DESIGN_CONTEXT ( 'detailed design', #54, 'design' ) ;
#36 = DIRECTION ( 'NONE',  ( -0.0000000000000000000, -0.0000000000000000000, -1.000000000000000000 ) ) ;
#37 = DATE_AND_TIME ( #34, #114 ) ;
#38 = AXIS2_PLACEMENT_3D ( 'NONE', #80, #11, #47 ) ;
#39 = APPLICATION_PROTOCOL_DEFINITION ( 'international standard', 'config_control_design', 1994, #54 ) ;
#40 = FACE_OUTER_BOUND ( 'NONE', #123, .T. ) ;
#41 = EDGE_CURVE ( 'NONE', #48, #116, #168, .T. ) ;
#42 =( LENGTH_UNIT ( ) NAMED_UNIT ( * ) SI_UNIT ( .MILLI., .METRE. ) );
#43 = VERTEX_POINT ( 'NONE', #71 ) ;
#44 = APPROVAL_DATE_TIME ( #22, #115 ) ;
#45 = AXIS2_PLACEMENT_3D ( 'NONE', #152, #113, #163 ) ;
#46 = COORDINATED_UNIVERSAL_TIME_OFFSET ( 5, 0, .BEHIND. ) ;
#47 = DIRECTION ( 'NONE',  ( 1.000000000000000000, 0.0000000000000000000, 0.0000000000000000000 ) ) ;
#48 = VERTEX_POINT ( 'NONE', #127 ) ;
#49 = PLANE ( 'NONE',  #100 ) ;
#50 = EDGE_CURVE ( 'NONE', #164, #43, #140, .T. ) ;
#51 = PERSON_AND_ORGANIZATION_ROLE ( 'design_owner' ) ;
#52 = APPROVAL_ROLE ( '' ) ;
#53 = ORIENTED_EDGE ( 'NONE', *, *, #15, .F. ) ;
#54 = APPLICATION_CONTEXT ( 'configuration controlled 3d designs of mechanical parts and assemblies' ) ;
#55 = LOCAL_TIME ( 10, 46, 7.000000000000000000, #101 ) ;
#56 = PRODUCT_DEFINITION ( 'UNKNOWN', '', #133, #35 ) ;
#57 = UNCERTAINTY_MEASURE_WITH_UNIT (LENGTH_MEASURE( 1.000000000000000100E-005 ), #42, 'distance_accuracy_value', 'NONE');
#58 = ORIENTED_EDGE ( 'NONE', *, *, #50, .F. ) ;
#59 = COORDINATED_UNIVERSAL_TIME_OFFSET ( 5, 0, .BEHIND. ) ;
#60 = ORIENTED_EDGE ( 'NONE', *, *, #144, .T. ) ;
#61 = AXIS2_PLACEMENT_3D ( 'NONE', #153, #173, #111 ) ;
#62 = VECTOR ( 'NONE', #19, 1000.000000000000000 ) ;
#63 = DIRECTION ( 'NONE',  ( -0.0000000000000000000, -0.0000000000000000000, -1.000000000000000000 ) ) ;
#64 = DIRECTION ( 'NONE',  ( -1.000000000000000000, 0.0000000000000000000, 0.0000000000000000000 ) ) ;
#65 = PERSON_AND_ORGANIZATION ( #7, #72 ) ;
#66 =( GEOMETRIC_REPRESENTATION_CONTEXT ( 3 ) GLOBAL_UNCERTAINTY_ASSIGNED_CONTEXT ( ( #57 ) ) GLOBAL_UNIT_ASSIGNED_CONTEXT ( ( #42, #24, #124 ) ) REPRESENTATION_CONTEXT ( 'NONE', 'WORKASPACE' ) );
#67 = DATE_TIME_ROLE ( 'creation_date' ) ;
#68 = PERSON_AND_ORGANIZATION ( #7, #72 ) ;
#69 = EDGE_LOOP ( 'NONE', ( #92, #89, #93, #167 ) ) ;
#70 = LOCAL_TIME ( 10, 46, 7.000000000000000000, #46 ) ;
#71 = CARTESIAN_POINT ( 'NONE',  ( 10.00000000000000200, 1.224646799147353500E-015, 0.0000000000000000000 ) ) ;
#72 = ORGANIZATION ( 'UNSPECIFIED', 'UNSPECIFIED', '' ) ;
#73 = COORDINATED_UNIVERSAL_TIME_OFFSET ( 5, 0, .BEHIND. ) ;
#74 = AXIS2_PLACEMENT_3D ( 'NONE', #78, #132, #157 ) ;
#75 = CLOSED_SHELL ( 'NONE', ( #150, #84, #171, #10 ) ) ;
#76 = CC_DESIGN_APPROVAL ( #115, ( #56 ) ) ;
#77 = DIRECTION ( 'NONE',  ( -1.000000000000000000, 0.0000000000000000000, 0.0000000000000000000 ) ) ;
#78 = CARTESIAN_POINT ( 'NONE',  ( 0.0000000000000000000, 0.0000000000000000000, 2.000000000000000000 ) ) ;
#79 = APPROVAL_DATE_TIME ( #16, #156 ) ;
#80 = CARTESIAN_POINT ( 'NONE',  ( 0.0000000000000000000, 0.0000000000000000000, 0.0000000000000000000 ) ) ;
#81 = AXIS2_PLACEMENT_3D ( 'NONE', #148, #63, #64 ) ;
#82 = APPLICATION_PROTOCOL_DEFINITION ( 'international standard', 'config_control_design', 1994, #119 ) ;
#83 = PERSON_AND_ORGANIZATION_ROLE ( 'design_supplier' ) ;
#84 = ADVANCED_FACE ( 'NONE', ( #165 ), #98, .T. ) ;
#85 = CARTESIAN_POINT ( 'NONE',  ( 0.0000000000000000000, 0.0000000000000000000, 2.000000000000000000 ) ) ;
#86 = LOCAL_TIME ( 10, 46, 7.000000000000000000, #5 ) ;
#87 = CC_DESIGN_PERSON_AND_ORGANIZATION_ASSIGNMENT ( #65, #151, ( #56 ) ) ;
#88 = ORIENTED_EDGE ( 'NONE', *, *, #50, .T. ) ;
#89 = ORIENTED_EDGE ( 'NONE', *, *, #130, .T. ) ;
#90 = CC_DESIGN_APPROVAL ( #156, ( #133 ) ) ;
#91 = DIRECTION ( 'NONE',  ( 0.0000000000000000000, 0.0000000000000000000, 1.000000000000000000 ) ) ;
#92 = ORIENTED_EDGE ( 'NONE', *, *, #6, .F. ) ;
#93 = ORIENTED_EDGE ( 'NONE', *, *, #15, .T. ) ;
#94 = DATE_AND_TIME ( #1, #166 ) ;
#95 = CC_DESIGN_SECURITY_CLASSIFICATION ( #32, ( #133 ) ) ;
#96 = APPROVAL_STATUS ( 'not_yet_approved' ) ;
#97 = SECURITY_CLASSIFICATION_LEVEL ( 'unclassified' ) ;
#98 = CYLINDRICAL_SURFACE ( 'NONE', #81, 10.00000000000000200 ) ;
#99 = APPROVAL_PERSON_ORGANIZATION ( #143, #159, #109 ) ;
#100 = AXIS2_PLACEMENT_3D ( 'NONE', #160, #91, #122 ) ;
#101 = COORDINATED_UNIVERSAL_TIME_OFFSET ( 5, 0, .BEHIND. ) ;
#102 = AXIS2_PLACEMENT_3D ( 'NONE', #121, #172, #23 ) ;
#103 = DATE_AND_TIME ( #29, #55 ) ;
#104 = CARTESIAN_POINT ( 'NONE',  ( 10.00000000000000200, 1.224646799147353500E-015, 2.000000000000000000 ) ) ;
#105 = PERSON_AND_ORGANIZATION ( #7, #72 ) ;
#106 = APPROVAL_ROLE ( '' ) ;
#107 = PERSON_AND_ORGANIZATION ( #7, #72 ) ;
#108 = AXIS2_PLACEMENT_3D ( 'NONE', #21, #134, #77 ) ;
#109 = APPROVAL_ROLE ( '' ) ;
#110 = CC_DESIGN_PERSON_AND_ORGANIZATION_ASSIGNMENT ( #169, #51, ( #31 ) ) ;
#111 = DIRECTION ( 'NONE',  ( 1.000000000000000000, 0.0000000000000000000, 0.0000000000000000000 ) ) ;
#112 = PERSON_AND_ORGANIZATION ( #7, #72 ) ;
#113 = DIRECTION ( 'NONE',  ( 0.0000000000000000000, 0.0000000000000000000, 1.000000000000000000 ) ) ;
#114 = LOCAL_TIME ( 10, 46, 7.000000000000000000, #73 ) ;
#115 = APPROVAL ( #96, 'UNSPECIFIED' ) ;
#116 = VERTEX_POINT ( 'NONE', #104 ) ;
#117 = CARTESIAN_POINT ( 'NONE',  ( 10.00000000000000200, 1.224646799147353500E-015, 2.000000000000000000 ) ) ;
#118 = PRODUCT_DEFINITION_SHAPE ( 'NONE', 'NONE',  #56 ) ;
#119 = APPLICATION_CONTEXT ( 'configuration controlled 3d designs of mechanical parts and assemblies' ) ;
#120 = CC_DESIGN_PERSON_AND_ORGANIZATION_ASSIGNMENT ( #112, #170, ( #32 ) ) ;
#121 = CARTESIAN_POINT ( 'NONE',  ( 0.0000000000000000000, 0.0000000000000000000, 0.0000000000000000000 ) ) ;
#122 = DIRECTION ( 'NONE',  ( 1.000000000000000000, 0.0000000000000000000, -0.0000000000000000000 ) ) ;
#123 = EDGE_LOOP ( 'NONE', ( #128, #2 ) ) ;
#124 =( NAMED_UNIT ( * ) SI_UNIT ( $, .STERADIAN. ) SOLID_ANGLE_UNIT ( ) );
#125 = PLANE ( 'NONE',  #45 ) ;
#126 = CC_DESIGN_DATE_AND_TIME_ASSIGNMENT ( #37, #67, ( #56 ) ) ;
#127 = CARTESIAN_POINT ( 'NONE',  ( -10.00000000000000200, 0.0000000000000000000, 2.000000000000000000 ) ) ;
#128 = ORIENTED_EDGE ( 'NONE', *, *, #41, .T. ) ;
#129 = CC_DESIGN_DATE_AND_TIME_ASSIGNMENT ( #103, #162, ( #32 ) ) ;
#130 = EDGE_CURVE ( 'NONE', #116, #43, #9, .T. ) ;
#131 = CARTESIAN_POINT ( 'NONE',  ( -10.00000000000000200, 0.0000000000000000000, 2.000000000000000000 ) ) ;
#132 = DIRECTION ( 'NONE',  ( 0.0000000000000000000, 0.0000000000000000000, 1.000000000000000000 ) ) ;
#133 = PRODUCT_DEFINITION_FORMATION_WITH_SPECIFIED_SOURCE ( 'ANY', '', #31, .NOT_KNOWN. ) ;
#134 = DIRECTION ( 'NONE',  ( -0.0000000000000000000, -0.0000000000000000000, -1.000000000000000000 ) ) ;
#135 = CALENDAR_DATE ( 2017, 1, 2 ) ;
#136 = MECHANICAL_CONTEXT ( 'NONE', #119, 'mechanical' ) ;
#137 = PERSON_AND_ORGANIZATION_ROLE ( 'creator' ) ;
#138 = EDGE_LOOP ( 'NONE', ( #58, #53 ) ) ;
#139 = DIRECTION ( 'NONE',  ( 1.000000000000000000, 0.0000000000000000000, 0.0000000000000000000 ) ) ;
#140 = CIRCLE ( 'NONE', #38, 10.00000000000000200 ) ;
#141 = PERSON_AND_ORGANIZATION ( #7, #72 ) ;
#142 = DIRECTION ( 'NONE',  ( 0.0000000000000000000, 0.0000000000000000000, 1.000000000000000000 ) ) ;
#143 = PERSON_AND_ORGANIZATION ( #7, #72 ) ;
#144 = EDGE_CURVE ( 'NONE', #48, #164, #17, .T. ) ;
#145 = SHAPE_DEFINITION_REPRESENTATION ( #118, #175 ) ;
#146 = MANIFOLD_SOLID_BREP ( 'Extrude1', #75 ) ;
#147 = APPROVAL_PERSON_ORGANIZATION ( #105, #156, #106 ) ;
#148 = CARTESIAN_POINT ( 'NONE',  ( 0.0000000000000000000, 0.0000000000000000000, 2.000000000000000000 ) ) ;
#149 = CIRCLE ( 'NONE', #154, 10.00000000000000200 ) ;
#150 = ADVANCED_FACE ( 'NONE', ( #28 ), #33, .T. ) ;
#151 = PERSON_AND_ORGANIZATION_ROLE ( 'creator' ) ;
#152 = CARTESIAN_POINT ( 'NONE',  ( 0.0000000000000000000, 0.0000000000000000000, 0.0000000000000000000 ) ) ;
#153 = CARTESIAN_POINT ( 'NONE',  ( 0.0000000000000000000, 0.0000000000000000000, 0.0000000000000000000 ) ) ;
#154 = AXIS2_PLACEMENT_3D ( 'NONE', #85, #142, #139 ) ;
#155 = APPROVAL_PERSON_ORGANIZATION ( #107, #115, #52 ) ;
#156 = APPROVAL ( #13, 'UNSPECIFIED' ) ;
#157 = DIRECTION ( 'NONE',  ( 1.000000000000000000, 0.0000000000000000000, 0.0000000000000000000 ) ) ;
#158 = ORIENTED_EDGE ( 'NONE', *, *, #130, .F. ) ;
#159 = APPROVAL ( #26, 'UNSPECIFIED' ) ;
#160 = CARTESIAN_POINT ( 'NONE',  ( 0.0000000000000000000, 0.0000000000000000000, 2.000000000000000000 ) ) ;
#161 = APPROVAL_DATE_TIME ( #94, #159 ) ;
#162 = DATE_TIME_ROLE ( 'classification_date' ) ;
#163 = DIRECTION ( 'NONE',  ( 1.000000000000000000, 0.0000000000000000000, -0.0000000000000000000 ) ) ;
#164 = VERTEX_POINT ( 'NONE', #8 ) ;
#165 = FACE_OUTER_BOUND ( 'NONE', #12, .T. ) ;
#166 = LOCAL_TIME ( 10, 46, 7.000000000000000000, #59 ) ;
#167 = ORIENTED_EDGE ( 'NONE', *, *, #144, .F. ) ;
#168 = CIRCLE ( 'NONE', #74, 10.00000000000000200 ) ;
#169 = PERSON_AND_ORGANIZATION ( #7, #72 ) ;
#170 = PERSON_AND_ORGANIZATION_ROLE ( 'classification_officer' ) ;
#171 = ADVANCED_FACE ( 'NONE', ( #40 ), #49, .T. ) ;
#172 = DIRECTION ( 'NONE',  ( 0.0000000000000000000, 0.0000000000000000000, 1.000000000000000000 ) ) ;
#173 = DIRECTION ( 'NONE',  ( 0.0000000000000000000, 0.0000000000000000000, 1.000000000000000000 ) ) ;
#174 = PRODUCT_RELATED_PRODUCT_CATEGORY ( 'detail', '', ( #31 ) ) ;
#175 = ADVANCED_BREP_SHAPE_REPRESENTATION ( 'Web Model 84464', ( #146, #102 ), #66 ) ;
ENDSEC;
END-ISO-10303-21;
