ISO-10303-21;
HEADER;
FILE_DESCRIPTION (( 'STEP AP203' ),
    '1' );
FILE_NAME ('Web Model 48200_48200.step',
    '2019-01-07T15:25:23',
    ( '' ),
    ( '' ),
    'SwSTEP 2.0',
    'SolidWorks 2016',
    '' );
FILE_SCHEMA (( 'CONFIG_CONTROL_DESIGN' ));
ENDSEC;

DATA;
#1 = LINE ( 'NONE', #104, #175 ) ;
#2 = ORIENTED_EDGE ( 'NONE', *, *, #31, .T. ) ;
#3 = DATE_AND_TIME ( #11, #101 ) ;
#4 = EDGE_LOOP ( 'NONE', ( #102, #17, #219, #2 ) ) ;
#5 = CARTESIAN_POINT ( 'NONE',  ( -6.249999999999994700, -6.249999999999984900, 1.000000000000000000 ) ) ;
#6 = PRODUCT ( 'Web Model 48200_48200', 'Web Model 48200_48200', '', ( #154 ) ) ;
#7 = VECTOR ( 'NONE', #202, 1000.000000000000000 ) ;
#8 = ORIENTED_EDGE ( 'NONE', *, *, #186, .T. ) ;
#9 = CARTESIAN_POINT ( 'NONE',  ( -6.249999999999994700, -6.249999999999984900, 1.000000000000000000 ) ) ;
#10 = APPROVAL ( #170, 'UNSPECIFIED' ) ;
#11 = CALENDAR_DATE ( 2019, 7, 1 ) ;
#12 = PERSON_AND_ORGANIZATION ( #94, #30 ) ;
#14 = ORIENTED_EDGE ( 'NONE', *, *, #47, .T. ) ;
#13 = DIRECTION ( 'NONE',  ( -1.000000000000000000, -0.0000000000000000000, -0.0000000000000000000 ) ) ;
#15 = DIRECTION ( 'NONE',  ( 1.000000000000000000, 0.0000000000000000000, 0.0000000000000000000 ) ) ;
#16 = PERSON_AND_ORGANIZATION ( #94, #30 ) ;
#17 = ORIENTED_EDGE ( 'NONE', *, *, #186, .F. ) ;
#18 = CC_DESIGN_APPROVAL ( #10, ( #79 ) ) ;
#19 = VECTOR ( 'NONE', #15, 1000.000000000000000 ) ;
#20 = VECTOR ( 'NONE', #198, 1000.000000000000000 ) ;
#21 = DIRECTION ( 'NONE',  ( -0.0000000000000000000, -0.0000000000000000000, -1.000000000000000000 ) ) ;
#22 = DIRECTION ( 'NONE',  ( -1.000000000000000000, 0.0000000000000000000, 0.0000000000000000000 ) ) ;
#23 = ORIENTED_EDGE ( 'NONE', *, *, #213, .T. ) ;
#24 = CC_DESIGN_PERSON_AND_ORGANIZATION_ASSIGNMENT ( #115, #184, ( #6 ) ) ;
#25 = PERSON_AND_ORGANIZATION_ROLE ( 'creator' ) ;
#26 = PLANE ( 'NONE',  #234 ) ;
#27 = CARTESIAN_POINT ( 'NONE',  ( 0.0000000000000000000, 0.0000000000000000000, 0.0000000000000000000 ) ) ;
#28 = EDGE_LOOP ( 'NONE', ( #142, #177, #232, #8 ) ) ;
#29 = CC_DESIGN_APPROVAL ( #145, ( #201 ) ) ;
#30 = ORGANIZATION ( 'UNSPECIFIED', 'UNSPECIFIED', '' ) ;
#31 = EDGE_CURVE ( 'NONE', #158, #78, #215, .T. ) ;
#32 = DIRECTION ( 'NONE',  ( 0.0000000000000000000, 0.0000000000000000000, -1.000000000000000000 ) ) ;
#33 = CARTESIAN_POINT ( 'NONE',  ( 6.250000000000006200, -6.249999999999984900, -1.000000000000000000 ) ) ;
#34 = CARTESIAN_POINT ( 'NONE',  ( -6.249999999999994700, -6.249999999999984900, 1.000000000000000000 ) ) ;
#35 = VECTOR ( 'NONE', #119, 1000.000000000000000 ) ;
#36 = ORIENTED_EDGE ( 'NONE', *, *, #58, .T. ) ;
#37 = CC_DESIGN_PERSON_AND_ORGANIZATION_ASSIGNMENT ( #86, #107, ( #79 ) ) ;
#38 = DATE_AND_TIME ( #80, #130 ) ;
#39 = APPROVAL_DATE_TIME ( #95, #145 ) ;
#40 = ORIENTED_EDGE ( 'NONE', *, *, #203, .F. ) ;
#41 = DIRECTION ( 'NONE',  ( 0.0000000000000000000, 1.000000000000000000, 0.0000000000000000000 ) ) ;
#42 = COORDINATED_UNIVERSAL_TIME_OFFSET ( 5, 0, .BEHIND. ) ;
#43 = PERSON_AND_ORGANIZATION_ROLE ( 'design_supplier' ) ;
#44 = CC_DESIGN_APPROVAL ( #173, ( #157 ) ) ;
#45 = DIRECTION ( 'NONE',  ( 0.0000000000000000000, -0.0000000000000000000, -1.000000000000000000 ) ) ;
#46 = APPROVAL_PERSON_ORGANIZATION ( #72, #10, #91 ) ;
#47 = EDGE_CURVE ( 'NONE', #75, #138, #136, .T. ) ;
#48 = ADVANCED_BREP_SHAPE_REPRESENTATION ( 'Web Model 48200_48200', ( #84, #211 ), #220 ) ;
#49 = DESIGN_CONTEXT ( 'detailed design', #204, 'design' ) ;
#50 = ADVANCED_FACE ( 'NONE', ( #109 ), #92, .F. ) ;
#51 = DIRECTION ( 'NONE',  ( 0.0000000000000000000, 1.000000000000000000, 0.0000000000000000000 ) ) ;
#52 = VECTOR ( 'NONE', #41, 1000.000000000000000 ) ;
#53 = CARTESIAN_POINT ( 'NONE',  ( -6.249999999999994700, -6.249999999999984900, 1.000000000000000000 ) ) ;
#54 = EDGE_LOOP ( 'NONE', ( #64, #106, #200, #212 ) ) ;
#55 = PLANE ( 'NONE',  #103 ) ;
#56 = COORDINATED_UNIVERSAL_TIME_OFFSET ( 5, 0, .BEHIND. ) ;
#57 = LOCAL_TIME ( 10, 25, 23.00000000000000000, #237 ) ;
#58 = EDGE_CURVE ( 'NONE', #138, #78, #218, .T. ) ;
#59 = APPROVAL_PERSON_ORGANIZATION ( #16, #173, #207 ) ;
#60 = CC_DESIGN_PERSON_AND_ORGANIZATION_ASSIGNMENT ( #155, #76, ( #157 ) ) ;
#61 = CARTESIAN_POINT ( 'NONE',  ( 6.250000000000006200, 6.250000000000012400, 1.000000000000000000 ) ) ;
#62 = APPLICATION_PROTOCOL_DEFINITION ( 'international standard', 'config_control_design', 1994, #228 ) ;
#63 = APPLICATION_PROTOCOL_DEFINITION ( 'international standard', 'config_control_design', 1994, #204 ) ;
#64 = ORIENTED_EDGE ( 'NONE', *, *, #197, .T. ) ;
#65 = EDGE_CURVE ( 'NONE', #158, #172, #168, .T. ) ;
#66 = VECTOR ( 'NONE', #137, 1000.000000000000000 ) ;
#67 = CARTESIAN_POINT ( 'NONE',  ( -6.249999999999994700, 6.250000000000012400, 1.000000000000000000 ) ) ;
#68 = EDGE_CURVE ( 'NONE', #78, #185, #124, .T. ) ;
#69 = FACE_OUTER_BOUND ( 'NONE', #4, .T. ) ;
#70 = ORIENTED_EDGE ( 'NONE', *, *, #47, .F. ) ;
#71 = EDGE_CURVE ( 'NONE', #75, #158, #221, .T. ) ;
#72 = PERSON_AND_ORGANIZATION ( #94, #30 ) ;
#73 = CARTESIAN_POINT ( 'NONE',  ( -6.249999999999994700, -6.249999999999984900, 1.000000000000000000 ) ) ;
#74 = LINE ( 'NONE', #190, #19 ) ;
#75 = VERTEX_POINT ( 'NONE', #85 ) ;
#76 = PERSON_AND_ORGANIZATION_ROLE ( 'classification_officer' ) ;
#77 = VECTOR ( 'NONE', #13, 1000.000000000000000 ) ;
#78 = VERTEX_POINT ( 'NONE', #139 ) ;
#79 = PRODUCT_DEFINITION ( 'UNKNOWN', '', #201, #49 ) ;
#80 = CALENDAR_DATE ( 2019, 7, 1 ) ;
#81 = CARTESIAN_POINT ( 'NONE',  ( 6.250000000000006200, -6.249999999999984900, -1.000000000000000000 ) ) ;
#82 = VECTOR ( 'NONE', #88, 1000.000000000000000 ) ;
#83 = DIRECTION ( 'NONE',  ( -1.000000000000000000, 0.0000000000000000000, -0.0000000000000000000 ) ) ;
#84 = MANIFOLD_SOLID_BREP ( 'Boss-Extrude1', #148 ) ;
#85 = CARTESIAN_POINT ( 'NONE',  ( 6.250000000000006200, 6.250000000000012400, 1.000000000000000000 ) ) ;
#86 = PERSON_AND_ORGANIZATION ( #94, #30 ) ;
#87 = FACE_OUTER_BOUND ( 'NONE', #125, .T. ) ;
#88 = DIRECTION ( 'NONE',  ( -0.0000000000000000000, -0.0000000000000000000, -1.000000000000000000 ) ) ;
#89 = EDGE_CURVE ( 'NONE', #111, #138, #121, .T. ) ;
#90 = CC_DESIGN_DATE_AND_TIME_ASSIGNMENT ( #38, #128, ( #79 ) ) ;
#91 = APPROVAL_ROLE ( '' ) ;
#92 = PLANE ( 'NONE',  #110 ) ;
#93 = SECURITY_CLASSIFICATION_LEVEL ( 'unclassified' ) ;
#94 = PERSON ( 'UNSPECIFIED', 'UNSPECIFIED', 'UNSPECIFIED', ('UNSPECIFIED'), ('UNSPECIFIED'), ('UNSPECIFIED') ) ;
#95 = DATE_AND_TIME ( #143, #57 ) ;
#96 = ORIENTED_EDGE ( 'NONE', *, *, #68, .F. ) ;
#97 = DATE_AND_TIME ( #194, #160 ) ;
#98 = CARTESIAN_POINT ( 'NONE',  ( -6.249999999999994700, 6.250000000000012400, 1.000000000000000000 ) ) ;
#99 = FACE_OUTER_BOUND ( 'NONE', #54, .T. ) ;
#100 = DIRECTION ( 'NONE',  ( 1.000000000000000000, 0.0000000000000000000, 0.0000000000000000000 ) ) ;
#101 = LOCAL_TIME ( 10, 25, 23.00000000000000000, #56 ) ;
#102 = ORIENTED_EDGE ( 'NONE', *, *, #68, .T. ) ;
#103 = AXIS2_PLACEMENT_3D ( 'NONE', #176, #192, #83 ) ;
#104 = CARTESIAN_POINT ( 'NONE',  ( -6.249999999999994700, -6.249999999999984900, -1.000000000000000000 ) ) ;
#105 = DIRECTION ( 'NONE',  ( 0.0000000000000000000, 0.0000000000000000000, -1.000000000000000000 ) ) ;
#106 = ORIENTED_EDGE ( 'NONE', *, *, #71, .T. ) ;
#107 = PERSON_AND_ORGANIZATION_ROLE ( 'creator' ) ;
#108 = APPROVAL_STATUS ( 'not_yet_approved' ) ;
#109 = FACE_OUTER_BOUND ( 'NONE', #28, .T. ) ;
#110 = AXIS2_PLACEMENT_3D ( 'NONE', #5, #233, #208 ) ;
#111 = VERTEX_POINT ( 'NONE', #81 ) ;
#112 = DIRECTION ( 'NONE',  ( 0.0000000000000000000, -1.000000000000000000, 0.0000000000000000000 ) ) ;
#113 = EDGE_LOOP ( 'NONE', ( #162, #40, #96, #206 ) ) ;
#114 = CC_DESIGN_PERSON_AND_ORGANIZATION_ASSIGNMENT ( #199, #43, ( #201 ) ) ;
#115 = PERSON_AND_ORGANIZATION ( #94, #30 ) ;
#116 = CARTESIAN_POINT ( 'NONE',  ( -6.249999999999994700, 6.250000000000012400, -1.000000000000000000 ) ) ;
#117 = ADVANCED_FACE ( 'NONE', ( #153 ), #236, .T. ) ;
#118 = CARTESIAN_POINT ( 'NONE',  ( 0.0000000000000000000, 0.0000000000000000000, -1.000000000000000000 ) ) ;
#119 = DIRECTION ( 'NONE',  ( -0.0000000000000000000, -1.000000000000000000, -0.0000000000000000000 ) ) ;
#120 = AXIS2_PLACEMENT_3D ( 'NONE', #118, #32, #159 ) ;
#121 = LINE ( 'NONE', #33, #223 ) ;
#122 = DIRECTION ( 'NONE',  ( -1.000000000000000000, -0.0000000000000000000, -0.0000000000000000000 ) ) ;
#123 = VECTOR ( 'NONE', #122, 1000.000000000000000 ) ;
#124 = LINE ( 'NONE', #209, #35 ) ;
#125 = EDGE_LOOP ( 'NONE', ( #166, #70, #144, #23 ) ) ;
#126 = CARTESIAN_POINT ( 'NONE',  ( 6.250000000000006200, -6.249999999999984900, 1.000000000000000000 ) ) ;
#127 = PLANE ( 'NONE',  #188 ) ;
#128 = DATE_TIME_ROLE ( 'creation_date' ) ;
#129 = APPROVAL_ROLE ( '' ) ;
#130 = LOCAL_TIME ( 10, 25, 23.00000000000000000, #42 ) ;
#131 = APPROVAL_STATUS ( 'not_yet_approved' ) ;
#132 = DIRECTION ( 'NONE',  ( 1.000000000000000000, 0.0000000000000000000, 0.0000000000000000000 ) ) ;
#133 = SHAPE_DEFINITION_REPRESENTATION ( #180, #48 ) ;
#134 = UNCERTAINTY_MEASURE_WITH_UNIT (LENGTH_MEASURE( 1.000000000000000100E-005 ), #183, 'distance_accuracy_value', 'NONE');
#135 = CALENDAR_DATE ( 2019, 7, 1 ) ;
#136 = LINE ( 'NONE', #61, #7 ) ;
#138 = VERTEX_POINT ( 'NONE', #217 ) ;
#137 = DIRECTION ( 'NONE',  ( -0.0000000000000000000, -1.000000000000000000, -0.0000000000000000000 ) ) ;
#139 = CARTESIAN_POINT ( 'NONE',  ( -6.249999999999994700, 6.250000000000012400, -1.000000000000000000 ) ) ;
#140 = EDGE_CURVE ( 'NONE', #172, #224, #74, .T. ) ;
#141 = AXIS2_PLACEMENT_3D ( 'NONE', #126, #22, #225 ) ;
#142 = ORIENTED_EDGE ( 'NONE', *, *, #203, .T. ) ;
#143 = CALENDAR_DATE ( 2019, 7, 1 ) ;
#144 = ORIENTED_EDGE ( 'NONE', *, *, #197, .F. ) ;
#145 = APPROVAL ( #108, 'UNSPECIFIED' ) ;
#146 = CARTESIAN_POINT ( 'NONE',  ( 6.250000000000006200, -6.249999999999984900, 1.000000000000000000 ) ) ;
#147 = COORDINATED_UNIVERSAL_TIME_OFFSET ( 5, 0, .BEHIND. ) ;
#148 = CLOSED_SHELL ( 'NONE', ( #189, #216, #178, #50, #174, #117 ) ) ;
#149 = DIRECTION ( 'NONE',  ( 0.0000000000000000000, 0.0000000000000000000, 1.000000000000000000 ) ) ;
#150 = CARTESIAN_POINT ( 'NONE',  ( -6.249999999999994700, 6.250000000000012400, 1.000000000000000000 ) ) ;
#151 = CARTESIAN_POINT ( 'NONE',  ( -6.249999999999994700, 6.250000000000012400, 1.000000000000000000 ) ) ;
#152 = CARTESIAN_POINT ( 'NONE',  ( 6.250000000000006200, -6.249999999999984900, 1.000000000000000000 ) ) ;
#153 = FACE_OUTER_BOUND ( 'NONE', #113, .T. ) ;
#154 = MECHANICAL_CONTEXT ( 'NONE', #228, 'mechanical' ) ;
#155 = PERSON_AND_ORGANIZATION ( #94, #30 ) ;
#156 = ORIENTED_EDGE ( 'NONE', *, *, #31, .F. ) ;
#157 = SECURITY_CLASSIFICATION ( '', '', #93 ) ;
#158 = VERTEX_POINT ( 'NONE', #67 ) ;
#159 = DIRECTION ( 'NONE',  ( -1.000000000000000000, 0.0000000000000000000, -0.0000000000000000000 ) ) ;
#160 = LOCAL_TIME ( 10, 25, 23.00000000000000000, #147 ) ;
#161 = DATE_AND_TIME ( #135, #214 ) ;
#162 = ORIENTED_EDGE ( 'NONE', *, *, #89, .F. ) ;
#163 = CARTESIAN_POINT ( 'NONE',  ( -6.249999999999994700, -6.249999999999984900, -1.000000000000000000 ) ) ;
#164 = CARTESIAN_POINT ( 'NONE',  ( 6.250000000000006200, -6.249999999999984900, 1.000000000000000000 ) ) ;
#165 = COORDINATED_UNIVERSAL_TIME_OFFSET ( 5, 0, .BEHIND. ) ;
#166 = ORIENTED_EDGE ( 'NONE', *, *, #89, .T. ) ;
#167 = DIRECTION ( 'NONE',  ( 1.000000000000000000, 0.0000000000000000000, 0.0000000000000000000 ) ) ;
#168 = LINE ( 'NONE', #9, #66 ) ;
#169 =( NAMED_UNIT ( * ) SI_UNIT ( $, .STERADIAN. ) SOLID_ANGLE_UNIT ( ) );
#170 = APPROVAL_STATUS ( 'not_yet_approved' ) ;
#171 = FACE_OUTER_BOUND ( 'NONE', #187, .T. ) ;
#172 = VERTEX_POINT ( 'NONE', #53 ) ;
#173 = APPROVAL ( #131, 'UNSPECIFIED' ) ;
#174 = ADVANCED_FACE ( 'NONE', ( #99 ), #55, .F. ) ;
#175 = VECTOR ( 'NONE', #167, 1000.000000000000000 ) ;
#176 = CARTESIAN_POINT ( 'NONE',  ( 0.0000000000000000000, 0.0000000000000000000, 1.000000000000000000 ) ) ;
#177 = ORIENTED_EDGE ( 'NONE', *, *, #213, .F. ) ;
#178 = ADVANCED_FACE ( 'NONE', ( #69 ), #127, .F. ) ;
#179 = CC_DESIGN_DATE_AND_TIME_ASSIGNMENT ( #97, #230, ( #157 ) ) ;
#180 = PRODUCT_DEFINITION_SHAPE ( 'NONE', 'NONE',  #79 ) ;
#181 = VECTOR ( 'NONE', #21, 1000.000000000000000 ) ;
#182 = CC_DESIGN_SECURITY_CLASSIFICATION ( #157, ( #201 ) ) ;
#183 =( LENGTH_UNIT ( ) NAMED_UNIT ( * ) SI_UNIT ( .MILLI., .METRE. ) );
#184 = PERSON_AND_ORGANIZATION_ROLE ( 'design_owner' ) ;
#185 = VERTEX_POINT ( 'NONE', #163 ) ;
#186 = EDGE_CURVE ( 'NONE', #172, #185, #229, .T. ) ;
#187 = EDGE_LOOP ( 'NONE', ( #36, #156, #195, #14 ) ) ;
#188 = AXIS2_PLACEMENT_3D ( 'NONE', #34, #100, #105 ) ;
#189 = ADVANCED_FACE ( 'NONE', ( #87 ), #222, .F. ) ;
#190 = CARTESIAN_POINT ( 'NONE',  ( -6.249999999999994700, -6.249999999999984900, 1.000000000000000000 ) ) ;
#191 = APPROVAL_DATE_TIME ( #161, #10 ) ;
#192 = DIRECTION ( 'NONE',  ( 0.0000000000000000000, 0.0000000000000000000, -1.000000000000000000 ) ) ;
#193 = PRODUCT_RELATED_PRODUCT_CATEGORY ( 'detail', '', ( #6 ) ) ;
#194 = CALENDAR_DATE ( 2019, 7, 1 ) ;
#195 = ORIENTED_EDGE ( 'NONE', *, *, #71, .F. ) ;
#196 = APPROVAL_PERSON_ORGANIZATION ( #12, #145, #129 ) ;
#197 = EDGE_CURVE ( 'NONE', #224, #75, #235, .T. ) ;
#198 = DIRECTION ( 'NONE',  ( -0.0000000000000000000, -0.0000000000000000000, -1.000000000000000000 ) ) ;
#199 = PERSON_AND_ORGANIZATION ( #94, #30 ) ;
#200 = ORIENTED_EDGE ( 'NONE', *, *, #65, .T. ) ;
#201 = PRODUCT_DEFINITION_FORMATION_WITH_SPECIFIED_SOURCE ( 'ANY', '', #6, .NOT_KNOWN. ) ;
#202 = DIRECTION ( 'NONE',  ( -0.0000000000000000000, -0.0000000000000000000, -1.000000000000000000 ) ) ;
#203 = EDGE_CURVE ( 'NONE', #185, #111, #1, .T. ) ;
#204 = APPLICATION_CONTEXT ( 'configuration controlled 3d designs of mechanical parts and assemblies' ) ;
#205 = LINE ( 'NONE', #146, #181 ) ;
#206 = ORIENTED_EDGE ( 'NONE', *, *, #58, .F. ) ;
#207 = APPROVAL_ROLE ( '' ) ;
#208 = DIRECTION ( 'NONE',  ( 0.0000000000000000000, -0.0000000000000000000, 1.000000000000000000 ) ) ;
#209 = CARTESIAN_POINT ( 'NONE',  ( -6.249999999999994700, -6.249999999999984900, -1.000000000000000000 ) ) ;
#210 = APPROVAL_DATE_TIME ( #3, #173 ) ;
#211 = AXIS2_PLACEMENT_3D ( 'NONE', #27, #149, #132 ) ;
#212 = ORIENTED_EDGE ( 'NONE', *, *, #140, .T. ) ;
#213 = EDGE_CURVE ( 'NONE', #224, #111, #205, .T. ) ;
#214 = LOCAL_TIME ( 10, 25, 23.00000000000000000, #165 ) ;
#215 = LINE ( 'NONE', #150, #20 ) ;
#216 = ADVANCED_FACE ( 'NONE', ( #171 ), #26, .F. ) ;
#217 = CARTESIAN_POINT ( 'NONE',  ( 6.250000000000006200, 6.250000000000012400, -1.000000000000000000 ) ) ;
#218 = LINE ( 'NONE', #116, #77 ) ;
#219 = ORIENTED_EDGE ( 'NONE', *, *, #65, .F. ) ;
#220 =( GEOMETRIC_REPRESENTATION_CONTEXT ( 3 ) GLOBAL_UNCERTAINTY_ASSIGNED_CONTEXT ( ( #134 ) ) GLOBAL_UNIT_ASSIGNED_CONTEXT ( ( #183, #227, #169 ) ) REPRESENTATION_CONTEXT ( 'NONE', 'WORKASPACE' ) );
#221 = LINE ( 'NONE', #98, #123 ) ;
#222 = PLANE ( 'NONE',  #141 ) ;
#223 = VECTOR ( 'NONE', #51, 1000.000000000000000 ) ;
#224 = VERTEX_POINT ( 'NONE', #152 ) ;
#225 = DIRECTION ( 'NONE',  ( 0.0000000000000000000, 0.0000000000000000000, 1.000000000000000000 ) ) ;
#226 = CC_DESIGN_PERSON_AND_ORGANIZATION_ASSIGNMENT ( #231, #25, ( #201 ) ) ;
#227 =( NAMED_UNIT ( * ) PLANE_ANGLE_UNIT ( ) SI_UNIT ( $, .RADIAN. ) );
#228 = APPLICATION_CONTEXT ( 'configuration controlled 3d designs of mechanical parts and assemblies' ) ;
#229 = LINE ( 'NONE', #73, #82 ) ;
#230 = DATE_TIME_ROLE ( 'classification_date' ) ;
#231 = PERSON_AND_ORGANIZATION ( #94, #30 ) ;
#232 = ORIENTED_EDGE ( 'NONE', *, *, #140, .F. ) ;
#233 = DIRECTION ( 'NONE',  ( 0.0000000000000000000, 1.000000000000000000, 0.0000000000000000000 ) ) ;
#234 = AXIS2_PLACEMENT_3D ( 'NONE', #151, #112, #45 ) ;
#235 = LINE ( 'NONE', #164, #52 ) ;
#236 = PLANE ( 'NONE',  #120 ) ;
#237 = COORDINATED_UNIVERSAL_TIME_OFFSET ( 5, 0, .BEHIND. ) ;
ENDSEC;
END-ISO-10303-21;
