ISO-10303-21;
HEADER;
FILE_DESCRIPTION (( 'STEP AP203' ),
    '1' );
FILE_NAME ('TTN227584-E0W.STEP',
    '2021-02-24T20:34:57',
    ( '' ),
    ( '' ),
    'SwSTEP 2.0',
    'SolidWorks 2018',
    '' );
FILE_SCHEMA (( 'CONFIG_CONTROL_DESIGN' ));
ENDSEC;

DATA;
#1 = EDGE_CURVE ( 'NONE', #93, #210, #98, .T. ) ;
#2 = DATE_AND_TIME ( #174, #256 ) ;
#3 = DIRECTION ( 'NONE',  ( 1.000000000000000000, 0.000000000000000000, 0.000000000000000000 ) ) ;
#4 = ORIENTED_EDGE ( 'NONE', *, *, #269, .F. ) ;
#5 =( NAMED_UNIT ( * ) SI_UNIT ( $, .STERADIAN. ) SOLID_ANGLE_UNIT ( ) );
#6 = FACE_OUTER_BOUND ( 'NONE', #44, .T. ) ;
#7 = ORIENTED_EDGE ( 'NONE', *, *, #35, .F. ) ;
#8 = SHAPE_DEFINITION_REPRESENTATION ( #226, #169 ) ;
#9 = ADVANCED_FACE ( 'NONE', ( #204 ), #21, .T. ) ;
#10 = FACE_OUTER_BOUND ( 'NONE', #111, .T. ) ;
#11 = CARTESIAN_POINT ( 'NONE',  ( 13.27850932386084182, 17.87891601787490004, 20.36427367929053744 ) ) ;
#12 = LINE ( 'NONE', #139, #69 ) ;
#13 = ORIENTED_EDGE ( 'NONE', *, *, #176, .F. ) ;
#14 = DIRECTION ( 'NONE',  ( 0.000000000000000000, 0.000000000000000000, -1.000000000000000000 ) ) ;
#15 = CARTESIAN_POINT ( 'NONE',  ( 15.94552509456743294, 20.91000493112044012, 25.61427367929053744 ) ) ;
#16 = DIRECTION ( 'NONE',  ( 0.7071067811865475727, 0.000000000000000000, -0.7071067811865474617 ) ) ;
#17 = LOCAL_TIME ( 15, 34, 57.00000000000000000, #268 ) ;
#18 = EDGE_CURVE ( 'NONE', #93, #163, #252, .T. ) ;
#19 = DIRECTION ( 'NONE',  ( -0.000000000000000000, -0.000000000000000000, 1.000000000000000000 ) ) ;
#20 = VECTOR ( 'NONE', #16, 1000.000000000000000 ) ;
#21 = CONICAL_SURFACE ( 'NONE', #92, 12.69999999999999929, 0.7853981633974415066 ) ;
#22 = DIRECTION ( 'NONE',  ( 0.000000000000000000, 0.000000000000000000, -1.000000000000000000 ) ) ;
#23 = B_SPLINE_CURVE_WITH_KNOTS ( 'NONE', 3,
 ( #85, #39, #88, #122 ),
 .UNSPECIFIED., .F., .F.,
 ( 4, 4 ),
 ( 1.734723475976806902E-18, 0.0004125637600518991988 ),
 .UNSPECIFIED. ) ;
#24 = FACE_OUTER_BOUND ( 'NONE', #63, .T. ) ;
#25 = APPLICATION_PROTOCOL_DEFINITION ( 'international standard', 'config_control_design', 1994, #260 ) ;
#26 = PERSON_AND_ORGANIZATION ( #248, #197 ) ;
#27 = PERSON_AND_ORGANIZATION_ROLE ( 'design_supplier' ) ;
#28 = ORIENTED_EDGE ( 'NONE', *, *, #66, .T. ) ;
#29 =( BOUNDED_CURVE ( )  B_SPLINE_CURVE ( 3, ( #144, #140, #36, #202 ),
 .UNSPECIFIED., .F., .F. ) 
 B_SPLINE_CURVE_WITH_KNOTS ( ( 4, 4 ),
 ( 1.570796326794897002, 1.811790738265941281 ),
 .UNSPECIFIED. ) 
 CURVE ( )  GEOMETRIC_REPRESENTATION_ITEM ( )  RATIONAL_B_SPLINE_CURVE ( ( 1.000000000000000000, 0.9951659943615830395, 0.9951659943615830395, 1.000000000000000000 ) ) 
 REPRESENTATION_ITEM ( '' )  );
#30 = APPROVAL ( #152, 'UNSPECIFIED' ) ;
#31 = MANIFOLD_SOLID_BREP ( 'TTN227593-1-solid1', #74 ) ;
#32 = ADVANCED_FACE ( 'NONE', ( #184 ), #221, .T. ) ;
#33 = CARTESIAN_POINT ( 'NONE',  ( 0.9455250945674329444, 20.91000493112044012, 20.36427367929053744 ) ) ;
#34 = CARTESIAN_POINT ( 'NONE',  ( 15.94552509456743294, 17.73457845057749438, 20.11427367929053744 ) ) ;
#35 = EDGE_CURVE ( 'NONE', #193, #134, #235, .T. ) ;
#36 = CARTESIAN_POINT ( 'NONE',  ( -11.63154205711512468, 18.87204783242201955, 22.08442844069921307 ) ) ;
#37 = ORIENTED_EDGE ( 'NONE', *, *, #123, .T. ) ;
#38 = DIRECTION ( 'NONE',  ( -1.000000000000000000, -0.000000000000000000, -0.000000000000000000 ) ) ;
#39 = CARTESIAN_POINT ( 'NONE',  ( -11.19126639210852048, 17.78253479574437179, 20.19733650566488947 ) ) ;
#40 =( GEOMETRIC_REPRESENTATION_CONTEXT ( 3 ) GLOBAL_UNCERTAINTY_ASSIGNED_CONTEXT ( ( #241 ) ) GLOBAL_UNIT_ASSIGNED_CONTEXT ( ( #232, #257, #5 ) ) REPRESENTATION_CONTEXT ( 'NONE', 'WORKASPACE' ) );
#41 = DATE_AND_TIME ( #96, #154 ) ;
#42 = CARTESIAN_POINT ( 'NONE',  ( -11.38745913472597593, 17.87891601787490004, 20.36427367929053744 ) ) ;
#43 = CC_DESIGN_PERSON_AND_ORGANIZATION_ASSIGNMENT ( #62, #151, ( #217 ) ) ;
#44 = EDGE_LOOP ( 'NONE', ( #146, #141 ) ) ;
#45 = DATE_TIME_ROLE ( 'classification_date' ) ;
#46 = DATE_TIME_ROLE ( 'creation_date' ) ;
#47 = APPROVAL_PERSON_ORGANIZATION ( #198, #195, #133 ) ;
#48 = VECTOR ( 'NONE', #38, 1000.000000000000000 ) ;
#49 = CC_DESIGN_DATE_AND_TIME_ASSIGNMENT ( #101, #46, ( #217 ) ) ;
#50 = ORIENTED_EDGE ( 'NONE', *, *, #1, .F. ) ;
#51 = ORIENTED_EDGE ( 'NONE', *, *, #18, .F. ) ;
#52 = EDGE_CURVE ( 'NONE', #163, #276, #182, .T. ) ;
#53 = ADVANCED_FACE ( 'NONE', ( #6 ), #187, .F. ) ;
#54 = EDGE_LOOP ( 'NONE', ( #95, #216, #51, #225 ) ) ;
#55 = EDGE_CURVE ( 'NONE', #117, #211, #29, .T. ) ;
#56 = PERSON_AND_ORGANIZATION ( #248, #197 ) ;
#57 = PLANE ( 'NONE',  #72 ) ;
#58 = CARTESIAN_POINT ( 'NONE',  ( 0.9455250945674329444, 20.91000493112044012, 25.86427367929054100 ) ) ;
#59 = EDGE_CURVE ( 'NONE', #117, #134, #12, .T. ) ;
#60 = DIRECTION ( 'NONE',  ( -1.000000000000000000, 0.000000000000000000, 0.000000000000000000 ) ) ;
#61 = APPROVAL_DATE_TIME ( #153, #128 ) ;
#62 = PERSON_AND_ORGANIZATION ( #248, #197 ) ;
#63 = EDGE_LOOP ( 'NONE', ( #79, #7, #91, #155 ) ) ;
#64 = DIRECTION ( 'NONE',  ( 0.000000000000000000, 0.000000000000000000, -1.000000000000000000 ) ) ;
#65 = CARTESIAN_POINT ( 'NONE',  ( -11.50447490543257345, 20.91000493112044012, 26.11427367929053744 ) ) ;
#66 = EDGE_CURVE ( 'NONE', #112, #193, #126, .T. ) ;
#67 = DIRECTION ( 'NONE',  ( 0.000000000000000000, -0.5000000000000008882, -0.8660254037844380415 ) ) ;
#68 = DATE_AND_TIME ( #203, #17 ) ;
#69 = VECTOR ( 'NONE', #223, 1000.000000000000000 ) ;
#70 = CARTESIAN_POINT ( 'NONE',  ( 13.64552509456743223, 20.91000493112043657, 20.11427367929053744 ) ) ;
#71 = DIRECTION ( 'NONE',  ( 0.000000000000000000, -1.365985158626579181E-16, -1.000000000000000000 ) ) ;
#72 = AXIS2_PLACEMENT_3D ( 'NONE', #82, #271, #142 ) ;
#73 = LINE ( 'NONE', #127, #189 ) ;
#74 = CLOSED_SHELL ( 'NONE', ( #115, #53, #113, #218, #32, #9, #180 ) ) ;
#75 = ORIENTED_EDGE ( 'NONE', *, *, #261, .T. ) ;
#76 = EDGE_CURVE ( 'NONE', #236, #112, #178, .T. ) ;
#77 = CARTESIAN_POINT ( 'NONE',  ( 13.64552509456743223, 20.91000493112043657, 25.61427367929053034 ) ) ;
#78 = CARTESIAN_POINT ( 'NONE',  ( 13.52259224624999234, 18.87204783242201955, 22.08442844069920952 ) ) ;
#79 = ORIENTED_EDGE ( 'NONE', *, *, #267, .F. ) ;
#80 = CARTESIAN_POINT ( 'NONE',  ( 13.27850932386084182, 17.87891601787490004, 20.36427367929053744 ) ) ;
#81 = CC_DESIGN_PERSON_AND_ORGANIZATION_ASSIGNMENT ( #89, #215, ( #132 ) ) ;
#82 = CARTESIAN_POINT ( 'NONE',  ( 15.94552509456743294, 8.210004931120442606, 20.11427367929053744 ) ) ;
#83 = CARTESIAN_POINT ( 'NONE',  ( -11.75447490543256635, 20.91000493112043657, 25.61427367929053034 ) ) ;
#84 = DIRECTION ( 'NONE',  ( 1.000000000000000000, 0.000000000000000000, 0.000000000000000000 ) ) ;
#85 = CARTESIAN_POINT ( 'NONE',  ( -11.09271259483987926, 17.73457845057749438, 20.11427367929053744 ) ) ;
#86 = AXIS2_PLACEMENT_3D ( 'NONE', #274, #131, #3 ) ;
#87 = AXIS2_PLACEMENT_3D ( 'NONE', #249, #22, #254 ) ;
#88 = CARTESIAN_POINT ( 'NONE',  ( -11.28951083345270057, 17.83065054004444505, 20.28067541943660146 ) ) ;
#89 = PERSON_AND_ORGANIZATION ( #248, #197 ) ;
#90 = SECURITY_CLASSIFICATION ( '', '', #105 ) ;
#91 = ORIENTED_EDGE ( 'NONE', *, *, #66, .F. ) ;
#92 = AXIS2_PLACEMENT_3D ( 'NONE', #33, #266, #237 ) ;
#93 = VERTEX_POINT ( 'NONE', #120 ) ;
#94 = PERSON_AND_ORGANIZATION ( #248, #197 ) ;
#95 = ORIENTED_EDGE ( 'NONE', *, *, #123, .F. ) ;
#96 = CALENDAR_DATE ( 2021, 24, 2 ) ;
#97 = ORIENTED_EDGE ( 'NONE', *, *, #176, .T. ) ;
#98 =( BOUNDED_CURVE ( )  B_SPLINE_CURVE ( 3, ( #11, #78, #161, #77 ),
 .UNSPECIFIED., .F., .F. ) 
 B_SPLINE_CURVE_WITH_KNOTS ( ( 4, 4 ),
 ( 4.471394568913645173, 4.712388980384689674 ),
 .UNSPECIFIED. ) 
 CURVE ( )  GEOMETRIC_REPRESENTATION_ITEM ( )  RATIONAL_B_SPLINE_CURVE ( ( 1.000000000000000000, 0.9951659943615830395, 0.9951659943615830395, 1.000000000000000000 ) ) 
 REPRESENTATION_ITEM ( '' )  );
#99 = DIRECTION ( 'NONE',  ( -1.000000000000000000, 0.000000000000000000, -0.000000000000000000 ) ) ;
#100 = EDGE_LOOP ( 'NONE', ( #50, #229, #264, #37, #239, #13 ) ) ;
#101 = DATE_AND_TIME ( #167, #107 ) ;
#102 = EDGE_LOOP ( 'NONE', ( #222, #121, #158, #172, #259, #138 ) ) ;
#103 = DIRECTION ( 'NONE',  ( -1.000000000000000000, -0.000000000000000000, -0.000000000000000000 ) ) ;
#104 = CC_DESIGN_DATE_AND_TIME_ASSIGNMENT ( #68, #45, ( #90 ) ) ;
#105 = SECURITY_CLASSIFICATION_LEVEL ( 'unclassified' ) ;
#106 = APPLICATION_PROTOCOL_DEFINITION ( 'international standard', 'config_control_design', 1994, #231 ) ;
#107 = LOCAL_TIME ( 15, 34, 57.00000000000000000, #219 ) ;
#108 = CONICAL_SURFACE ( 'NONE', #87, 12.45000000000000284, 0.7853981633974482790 ) ;
#109 = PRODUCT ( 'TTN227584-E0W', 'TTN227584-E0W', '', ( #233 ) ) ;
#110 = APPROVAL_ROLE ( '' ) ;
#111 = EDGE_LOOP ( 'NONE', ( #270, #75 ) ) ;
#112 = VERTEX_POINT ( 'NONE', #116 ) ;
#113 = ADVANCED_FACE ( 'NONE', ( #10 ), #57, .F. ) ;
#114 = CIRCLE ( 'NONE', #170, 12.69999999999999929 ) ;
#115 = ADVANCED_FACE ( 'NONE', ( #175 ), #165, .F. ) ;
#116 = CARTESIAN_POINT ( 'NONE',  ( 13.39552509456743579, 20.91000493112044012, 26.11427367929054100 ) ) ;
#117 = VERTEX_POINT ( 'NONE', #83 ) ;
#118 = CC_DESIGN_APPROVAL ( #128, ( #90 ) ) ;
#119 = EDGE_LOOP ( 'NONE', ( #4, #28, #199, #97, #263, #205 ) ) ;
#120 = CARTESIAN_POINT ( 'NONE',  ( 13.27850932386084182, 17.87891601787490004, 20.36427367929053744 ) ) ;
#121 = ORIENTED_EDGE ( 'NONE', *, *, #130, .T. ) ;
#122 = CARTESIAN_POINT ( 'NONE',  ( -11.38745913472597593, 17.87891601787490004, 20.36427367929053744 ) ) ;
#123 = EDGE_CURVE ( 'NONE', #276, #211, #23, .T. ) ;
#124 = DIRECTION ( 'NONE',  ( 1.000000000000000000, 0.000000000000000000, 0.000000000000000000 ) ) ;
#125 = VECTOR ( 'NONE', #192, 1000.000000000000000 ) ;
#126 = LINE ( 'NONE', #166, #20 ) ;
#127 = CARTESIAN_POINT ( 'NONE',  ( 0.9455250945674329444, 20.91000493112044012, 38.56427367929053673 ) ) ;
#128 = APPROVAL ( #194, 'UNSPECIFIED' ) ;
#129 = PERSON_AND_ORGANIZATION_ROLE ( 'classification_officer' ) ;
#130 = EDGE_CURVE ( 'NONE', #211, #93, #114, .T. ) ;
#131 = DIRECTION ( 'NONE',  ( 0.000000000000000000, 0.000000000000000000, 1.000000000000000000 ) ) ;
#132 = PRODUCT_DEFINITION_FORMATION_WITH_SPECIFIED_SOURCE ( 'ANY', '', #109, .NOT_KNOWN. ) ;
#133 = APPROVAL_ROLE ( '' ) ;
#134 = VERTEX_POINT ( 'NONE', #147 ) ;
#135 = VECTOR ( 'NONE', #212, 1000.000000000000000 ) ;
#136 = AXIS2_PLACEMENT_3D ( 'NONE', #15, #164, #186 ) ;
#137 = APPROVAL_DATE_TIME ( #41, #195 ) ;
#138 = ORIENTED_EDGE ( 'NONE', *, *, #59, .F. ) ;
#139 = CARTESIAN_POINT ( 'NONE',  ( -11.75447490543256635, 20.91000493112043657, 20.11427367929053744 ) ) ;
#140 = CARTESIAN_POINT ( 'NONE',  ( -11.75447490543256635, 19.88731862825544283, 23.84292904252358980 ) ) ;
#141 = ORIENTED_EDGE ( 'NONE', *, *, #76, .T. ) ;
#142 = DIRECTION ( 'NONE',  ( 0.000000000000000000, -1.000000000000000000, 1.365985158626579181E-16 ) ) ;
#143 = AXIS2_PLACEMENT_3D ( 'NONE', #58, #64, #190 ) ;
#144 = CARTESIAN_POINT ( 'NONE',  ( -11.75447490543256635, 20.91000493112043657, 25.61427367929053034 ) ) ;
#145 = CARTESIAN_POINT ( 'NONE',  ( 0.9455250945674329444, 20.91000493112044012, 20.36427367929053744 ) ) ;
#146 = ORIENTED_EDGE ( 'NONE', *, *, #269, .T. ) ;
#147 = CARTESIAN_POINT ( 'NONE',  ( -11.75447490543256635, 20.91000493112044012, 25.86427367929054100 ) ) ;
#148 = CC_DESIGN_PERSON_AND_ORGANIZATION_ASSIGNMENT ( #26, #27, ( #132 ) ) ;
#149 = DIRECTION ( 'NONE',  ( 0.7071067811865475727, -0.000000000000000000, 0.7071067811865474617 ) ) ;
#150 = CARTESIAN_POINT ( 'NONE',  ( 15.94552509456743294, 20.91000493112044012, 26.11427367929053744 ) ) ;
#151 = PERSON_AND_ORGANIZATION_ROLE ( 'creator' ) ;
#152 = APPROVAL_STATUS ( 'not_yet_approved' ) ;
#153 = DATE_AND_TIME ( #177, #275 ) ;
#154 = LOCAL_TIME ( 15, 34, 57.00000000000000000, #262 ) ;
#155 = ORIENTED_EDGE ( 'NONE', *, *, #76, .F. ) ;
#156 = APPROVAL_ROLE ( '' ) ;
#157 = DESIGN_CONTEXT ( 'detailed design', #260, 'design' ) ;
#158 = ORIENTED_EDGE ( 'NONE', *, *, #1, .T. ) ;
#159 = CIRCLE ( 'NONE', #251, 12.45000000000000284 ) ;
#160 = LINE ( 'NONE', #277, #243 ) ;
#161 = CARTESIAN_POINT ( 'NONE',  ( 13.64552509456743401, 19.88731862825543928, 23.84292904252359335 ) ) ;
#162 = AXIS2_PLACEMENT_3D ( 'NONE', #253, #230, #67 ) ;
#163 = VERTEX_POINT ( 'NONE', #206 ) ;
#164 = DIRECTION ( 'NONE',  ( 0.000000000000000000, -1.000000000000000000, 0.000000000000000000 ) ) ;
#165 = PLANE ( 'NONE',  #136 ) ;
#166 = CARTESIAN_POINT ( 'NONE',  ( 0.9455250945674329444, 20.91000493112044012, 38.56427367929053673 ) ) ;
#167 = CALENDAR_DATE ( 2021, 24, 2 ) ;
#168 = FACE_OUTER_BOUND ( 'NONE', #100, .T. ) ;
#169 = ADVANCED_BREP_SHAPE_REPRESENTATION ( 'TTN227584-E0W', ( #31, #86 ), #40 ) ;
#170 = AXIS2_PLACEMENT_3D ( 'NONE', #145, #273, #124 ) ;
#171 = CARTESIAN_POINT ( 'NONE',  ( 13.64552509456743223, 20.91000493112043657, 25.61427367929053034 ) ) ;
#172 = ORIENTED_EDGE ( 'NONE', *, *, #244, .T. ) ;
#173 = CARTESIAN_POINT ( 'NONE',  ( 0.9455250945674329444, 20.91000493112044012, 20.11427367929053744 ) ) ;
#174 = CALENDAR_DATE ( 2021, 24, 2 ) ;
#175 = FACE_OUTER_BOUND ( 'NONE', #119, .T. ) ;
#176 = EDGE_CURVE ( 'NONE', #210, #117, #160, .T. ) ;
#177 = CALENDAR_DATE ( 2021, 24, 2 ) ;
#178 = CIRCLE ( 'NONE', #227, 12.45000000000000284 ) ;
#179 = CC_DESIGN_SECURITY_CLASSIFICATION ( #90, ( #132 ) ) ;
#180 = ADVANCED_FACE ( 'NONE', ( #24 ), #108, .T. ) ;
#181 = PERSON_AND_ORGANIZATION ( #248, #197 ) ;
#182 = LINE ( 'NONE', #34, #48 ) ;
#183 = CC_DESIGN_PERSON_AND_ORGANIZATION_ASSIGNMENT ( #214, #213, ( #109 ) ) ;
#184 = FACE_OUTER_BOUND ( 'NONE', #102, .T. ) ;
#185 = CARTESIAN_POINT ( 'NONE',  ( 0.9455250945674329444, 20.91000493112044012, 26.11427367929053744 ) ) ;
#186 = DIRECTION ( 'NONE',  ( 0.000000000000000000, -0.000000000000000000, -1.000000000000000000 ) ) ;
#187 = PLANE ( 'NONE',  #234 ) ;
#188 = CC_DESIGN_APPROVAL ( #30, ( #217 ) ) ;
#189 = VECTOR ( 'NONE', #149, 1000.000000000000000 ) ;
#190 = DIRECTION ( 'NONE',  ( -1.000000000000000000, 0.000000000000000000, 0.000000000000000000 ) ) ;
#191 = AXIS2_PLACEMENT_3D ( 'NONE', #246, #242, #84 ) ;
#192 = DIRECTION ( 'NONE',  ( -0.000000000000000000, -0.000000000000000000, 1.000000000000000000 ) ) ;
#193 = VERTEX_POINT ( 'NONE', #208 ) ;
#194 = APPROVAL_STATUS ( 'not_yet_approved' ) ;
#195 = APPROVAL ( #278, 'UNSPECIFIED' ) ;
#196 = CARTESIAN_POINT ( 'NONE',  ( -11.09271259483987926, 17.73457845057749438, 20.11427367929053744 ) ) ;
#197 = ORGANIZATION ( 'UNSPECIFIED', 'UNSPECIFIED', '' ) ;
#198 = PERSON_AND_ORGANIZATION ( #248, #197 ) ;
#199 = ORIENTED_EDGE ( 'NONE', *, *, #244, .F. ) ;
#200 = LINE ( 'NONE', #70, #125 ) ;
#201 = CARTESIAN_POINT ( 'NONE',  ( 12.98376278397474337, 17.73457845057749438, 20.11427367929053744 ) ) ;
#202 = CARTESIAN_POINT ( 'NONE',  ( -11.38745913472597593, 17.87891601787490004, 20.36427367929053744 ) ) ;
#203 = CALENDAR_DATE ( 2021, 24, 2 ) ;
#204 = FACE_OUTER_BOUND ( 'NONE', #54, .T. ) ;
#205 = ORIENTED_EDGE ( 'NONE', *, *, #267, .T. ) ;
#206 = CARTESIAN_POINT ( 'NONE',  ( 12.98376278397474337, 17.73457845057749438, 20.11427367929053744 ) ) ;
#207 = PLANE ( 'NONE',  #162 ) ;
#208 = CARTESIAN_POINT ( 'NONE',  ( 13.64552509456743223, 20.91000493112043657, 25.86427367929054100 ) ) ;
#209 = APPROVAL_PERSON_ORGANIZATION ( #181, #128, #110 ) ;
#210 = VERTEX_POINT ( 'NONE', #171 ) ;
#211 = VERTEX_POINT ( 'NONE', #42 ) ;
#212 = DIRECTION ( 'NONE',  ( -1.000000000000000000, -0.000000000000000000, -0.000000000000000000 ) ) ;
#213 = PERSON_AND_ORGANIZATION_ROLE ( 'design_owner' ) ;
#214 = PERSON_AND_ORGANIZATION ( #248, #197 ) ;
#215 = PERSON_AND_ORGANIZATION_ROLE ( 'creator' ) ;
#216 = ORIENTED_EDGE ( 'NONE', *, *, #261, .F. ) ;
#217 = PRODUCT_DEFINITION ( 'UNKNOWN', '', #132, #157 ) ;
#218 = ADVANCED_FACE ( 'NONE', ( #168 ), #207, .F. ) ;
#219 = COORDINATED_UNIVERSAL_TIME_OFFSET ( 5, 0, .BEHIND. ) ;
#220 = CC_DESIGN_APPROVAL ( #195, ( #132 ) ) ;
#221 = CYLINDRICAL_SURFACE ( 'NONE', #191, 12.69999999999999929 ) ;
#222 = ORIENTED_EDGE ( 'NONE', *, *, #55, .T. ) ;
#223 = DIRECTION ( 'NONE',  ( -0.000000000000000000, -0.000000000000000000, 1.000000000000000000 ) ) ;
#224 = COORDINATED_UNIVERSAL_TIME_OFFSET ( 5, 0, .BEHIND. ) ;
#225 = ORIENTED_EDGE ( 'NONE', *, *, #130, .F. ) ;
#226 = PRODUCT_DEFINITION_SHAPE ( 'NONE', 'NONE',  #217 ) ;
#227 = AXIS2_PLACEMENT_3D ( 'NONE', #185, #19, #60 ) ;
#228 = DIRECTION ( 'NONE',  ( 0.000000000000000000, -1.000000000000000000, 0.000000000000000000 ) ) ;
#229 = ORIENTED_EDGE ( 'NONE', *, *, #18, .T. ) ;
#230 = DIRECTION ( 'NONE',  ( 0.000000000000000000, -0.8660254037844381525, 0.5000000000000009992 ) ) ;
#231 = APPLICATION_CONTEXT ( 'configuration controlled 3d designs of mechanical parts and assemblies' ) ;
#232 =( LENGTH_UNIT ( ) NAMED_UNIT ( * ) SI_UNIT ( .MILLI., .METRE. ) );
#233 = MECHANICAL_CONTEXT ( 'NONE', #231, 'mechanical' ) ;
#234 = AXIS2_PLACEMENT_3D ( 'NONE', #272, #14, #99 ) ;
#235 = CIRCLE ( 'NONE', #143, 12.69999999999999929 ) ;
#236 = VERTEX_POINT ( 'NONE', #65 ) ;
#237 = DIRECTION ( 'NONE',  ( 1.000000000000000000, 0.000000000000000000, 0.000000000000000000 ) ) ;
#238 = APPROVAL_PERSON_ORGANIZATION ( #94, #30, #156 ) ;
#239 = ORIENTED_EDGE ( 'NONE', *, *, #55, .F. ) ;
#240 = PRODUCT_RELATED_PRODUCT_CATEGORY ( 'detail', '', ( #109 ) ) ;
#241 = UNCERTAINTY_MEASURE_WITH_UNIT (LENGTH_MEASURE( 1.000000000000000082E-05 ), #232, 'distance_accuracy_value', 'NONE');
#242 = DIRECTION ( 'NONE',  ( -0.000000000000000000, -0.000000000000000000, 1.000000000000000000 ) ) ;
#243 = VECTOR ( 'NONE', #103, 1000.000000000000000 ) ;
#244 = EDGE_CURVE ( 'NONE', #210, #193, #200, .T. ) ;
#245 = CARTESIAN_POINT ( 'NONE',  ( 13.08231658124338637, 17.78253479574437179, 20.19733650566488947 ) ) ;
#246 = CARTESIAN_POINT ( 'NONE',  ( 0.9455250945674329444, 20.91000493112044012, 20.11427367929053744 ) ) ;
#247 = CC_DESIGN_PERSON_AND_ORGANIZATION_ASSIGNMENT ( #56, #129, ( #90 ) ) ;
#248 = PERSON ( 'UNSPECIFIED', 'UNSPECIFIED', 'UNSPECIFIED', ('UNSPECIFIED'), ('UNSPECIFIED'), ('UNSPECIFIED') ) ;
#249 = CARTESIAN_POINT ( 'NONE',  ( 0.9455250945674329444, 20.91000493112044012, 26.11427367929053744 ) ) ;
#250 = APPROVAL_DATE_TIME ( #2, #30 ) ;
#251 = AXIS2_PLACEMENT_3D ( 'NONE', #173, #71, #228 ) ;
#252 = B_SPLINE_CURVE_WITH_KNOTS ( 'NONE', 3,
 ( #80, #265, #245, #201 ),
 .UNSPECIFIED., .F., .F.,
 ( 4, 4 ),
 ( 0.000000000000000000, 0.0004125637600518991446 ),
 .UNSPECIFIED. ) ;
#253 = CARTESIAN_POINT ( 'NONE',  ( 15.94552509456743294, 17.73457845057749438, 20.11427367929053744 ) ) ;
#254 = DIRECTION ( 'NONE',  ( -1.000000000000000000, 0.000000000000000000, 0.000000000000000000 ) ) ;
#255 = COORDINATED_UNIVERSAL_TIME_OFFSET ( 5, 0, .BEHIND. ) ;
#256 = LOCAL_TIME ( 15, 34, 57.00000000000000000, #224 ) ;
#257 =( NAMED_UNIT ( * ) PLANE_ANGLE_UNIT ( ) SI_UNIT ( $, .RADIAN. ) );
#258 = LINE ( 'NONE', #150, #135 ) ;
#259 = ORIENTED_EDGE ( 'NONE', *, *, #35, .T. ) ;
#260 = APPLICATION_CONTEXT ( 'configuration controlled 3d designs of mechanical parts and assemblies' ) ;
#261 = EDGE_CURVE ( 'NONE', #163, #276, #159, .T. ) ;
#262 = COORDINATED_UNIVERSAL_TIME_OFFSET ( 5, 0, .BEHIND. ) ;
#263 = ORIENTED_EDGE ( 'NONE', *, *, #59, .T. ) ;
#264 = ORIENTED_EDGE ( 'NONE', *, *, #52, .T. ) ;
#265 = CARTESIAN_POINT ( 'NONE',  ( 13.18056102258756646, 17.83065054004444505, 20.28067541943660146 ) ) ;
#266 = DIRECTION ( 'NONE',  ( -0.000000000000000000, -0.000000000000000000, 1.000000000000000000 ) ) ;
#267 = EDGE_CURVE ( 'NONE', #134, #236, #73, .T. ) ;
#268 = COORDINATED_UNIVERSAL_TIME_OFFSET ( 5, 0, .BEHIND. ) ;
#269 = EDGE_CURVE ( 'NONE', #112, #236, #258, .T. ) ;
#270 = ORIENTED_EDGE ( 'NONE', *, *, #52, .F. ) ;
#271 = DIRECTION ( 'NONE',  ( -0.000000000000000000, 1.365985158626579181E-16, 1.000000000000000000 ) ) ;
#272 = CARTESIAN_POINT ( 'NONE',  ( 15.94552509456743294, 20.91000493112044012, 26.11427367929053744 ) ) ;
#273 = DIRECTION ( 'NONE',  ( -0.000000000000000000, -0.000000000000000000, 1.000000000000000000 ) ) ;
#274 = CARTESIAN_POINT ( 'NONE',  ( 0.000000000000000000, 0.000000000000000000, 0.000000000000000000 ) ) ;
#275 = LOCAL_TIME ( 15, 34, 57.00000000000000000, #255 ) ;
#276 = VERTEX_POINT ( 'NONE', #196 ) ;
#277 = CARTESIAN_POINT ( 'NONE',  ( 15.94552509456743294, 20.91000493112044012, 25.61427367929053744 ) ) ;
#278 = APPROVAL_STATUS ( 'not_yet_approved' ) ;
ENDSEC;
END-ISO-10303-21;
