ISO-10303-21;
HEADER;
FILE_DESCRIPTION (( 'STEP AP214' ),
    '1' );
FILE_NAME ('3453-E0W.STEP',
    '2009-12-21T16:59:37',
    ( ' ' ),
    ( ' ' ),
    'SwSTEP 2.0',
    'SolidWorks 2009',
    '' );
FILE_SCHEMA (( 'AUTOMOTIVE_DESIGN' ));
ENDSEC;

DATA;
#1 = ORIENTED_EDGE ( 'NONE', *, *, #25, .F. ) ;
#2 = EDGE_LOOP ( 'NONE', ( #66, #4, #6, #14 ) ) ;
#3 = ADVANCED_FACE ( 'NONE', ( #168 ), #273, .F. ) ;
#4 = ORIENTED_EDGE ( 'NONE', *, *, #56, .F. ) ;
#5 = CLOSED_SHELL ( 'NONE', ( #65, #46, #17, #48, #51, #3 ) ) ;
#6 = ORIENTED_EDGE ( 'NONE', *, *, #34, .F. ) ;
#7 = EDGE_CURVE ( 'NONE', #12, #11, #279, .T. ) ;
#8 = EDGE_CURVE ( 'NONE', #13, #11, #304, .T. ) ;
#9 = ORIENTED_EDGE ( 'NONE', *, *, #7, .F. ) ;
#10 = EDGE_LOOP ( 'NONE', ( #27, #16, #37, #50 ) ) ;
#11 = VERTEX_POINT ( 'NONE', #300 ) ;
#12 = VERTEX_POINT ( 'NONE', #299 ) ;
#13 = VERTEX_POINT ( 'NONE', #175 ) ;
#14 = ORIENTED_EDGE ( 'NONE', *, *, #59, .T. ) ;
#15 = EDGE_CURVE ( 'NONE', #39, #19, #173, .T. ) ;
#16 = ORIENTED_EDGE ( 'NONE', *, *, #25, .T. ) ;
#17 = ADVANCED_FACE ( 'NONE', ( #226 ), #306, .T. ) ;
#18 = EDGE_CURVE ( 'NONE', #19, #13, #259, .T. ) ;
#19 = VERTEX_POINT ( 'NONE', #266 ) ;
#20 = ORIENTED_EDGE ( 'NONE', *, *, #26, .T. ) ;
#21 = ORIENTED_EDGE ( 'NONE', *, *, #18, .F. ) ;
#22 = ORIENTED_EDGE ( 'NONE', *, *, #8, .F. ) ;
#23 = ORIENTED_EDGE ( 'NONE', *, *, #15, .F. ) ;
#24 = ORIENTED_EDGE ( 'NONE', *, *, #7, .T. ) ;
#25 = EDGE_CURVE ( 'NONE', #11, #57, #264, .T. ) ;
#26 = EDGE_CURVE ( 'NONE', #57, #19, #159, .T. ) ;
#27 = ORIENTED_EDGE ( 'NONE', *, *, #8, .T. ) ;
#28 = EDGE_CURVE ( 'NONE', #38, #39, #154, .T. ) ;
#29 = EDGE_CURVE ( 'NONE', #13, #60, #207, .T. ) ;
#30 = ORIENTED_EDGE ( 'NONE', *, *, #47, .F. ) ;
#31 = ORIENTED_EDGE ( 'NONE', *, *, #28, .T. ) ;
#32 = ORIENTED_EDGE ( 'NONE', *, *, #43, .T. ) ;
#33 = ORIENTED_EDGE ( 'NONE', *, *, #26, .F. ) ;
#34 = EDGE_CURVE ( 'NONE', #52, #12, #203, .T. ) ;
#35 = ORIENTED_EDGE ( 'NONE', *, *, #15, .T. ) ;
#36 = ORIENTED_EDGE ( 'NONE', *, *, #58, .F. ) ;
#37 = ORIENTED_EDGE ( 'NONE', *, *, #58, .T. ) ;
#38 = VERTEX_POINT ( 'NONE', #198 ) ;
#39 = VERTEX_POINT ( 'NONE', #197 ) ;
#40 = ORIENTED_EDGE ( 'NONE', *, *, #47, .T. ) ;
#41 = ORIENTED_EDGE ( 'NONE', *, *, #18, .T. ) ;
#42 = EDGE_LOOP ( 'NONE', ( #36, #20, #41, #53 ) ) ;
#43 = EDGE_CURVE ( 'NONE', #38, #44, #196, .T. ) ;
#44 = VERTEX_POINT ( 'NONE', #191 ) ;
#45 = EDGE_LOOP ( 'NONE', ( #9, #54, #31, #35, #33, #1 ) ) ;
#46 = ADVANCED_FACE ( 'NONE', ( #190 ), #248, .T. ) ;
#47 = EDGE_CURVE ( 'NONE', #39, #52, #247, .T. ) ;
#48 = ADVANCED_FACE ( 'NONE', ( #237 ), #212, .T. ) ;
#49 = EDGE_LOOP ( 'NONE', ( #40, #61, #24, #22, #21, #23 ) ) ;
#50 = ORIENTED_EDGE ( 'NONE', *, *, #29, .F. ) ;
#51 = ADVANCED_FACE ( 'NONE', ( #297 ), #165, .T. ) ;
#52 = VERTEX_POINT ( 'NONE', #74 ) ;
#53 = ORIENTED_EDGE ( 'NONE', *, *, #29, .T. ) ;
#54 = ORIENTED_EDGE ( 'NONE', *, *, #56, .T. ) ;
#55 = ORIENTED_EDGE ( 'NONE', *, *, #59, .F. ) ;
#56 = EDGE_CURVE ( 'NONE', #12, #38, #72, .T. ) ;
#57 = VERTEX_POINT ( 'NONE', #80 ) ;
#58 = EDGE_CURVE ( 'NONE', #57, #60, #76, .T. ) ;
#59 = EDGE_CURVE ( 'NONE', #52, #44, #83, .T. ) ;
#60 = VERTEX_POINT ( 'NONE', #98 ) ;
#61 = ORIENTED_EDGE ( 'NONE', *, *, #34, .T. ) ;
#62 = MANIFOLD_SOLID_BREP ( 'NONE', #5 ) ;
#63 = ORIENTED_EDGE ( 'NONE', *, *, #28, .F. ) ;
#64 = EDGE_LOOP ( 'NONE', ( #63, #32, #55, #30 ) ) ;
#65 = ADVANCED_FACE ( 'NONE', ( #107 ), #113, .F. ) ;
#66 = ORIENTED_EDGE ( 'NONE', *, *, #43, .F. ) ;
#67 = DIRECTION ( 'NONE',  ( -0.0000000000000000000, -0.0000000000000000000, 1.000000000000000000 ) ) ;
#68 = AXIS2_PLACEMENT_3D ( 'NONE', #70, #71, #75 ) ;
#69 = DIRECTION ( 'NONE',  ( 1.000000000000000000, 0.0000000000000000000, 0.0000000000000000000 ) ) ;
#70 = CARTESIAN_POINT ( 'NONE',  ( 0.0000000000000000000, 0.0000000000000000000, -1.832212523064202800 ) ) ;
#71 = DIRECTION ( 'NONE',  ( -0.0000000000000000000, -0.0000000000000000000, 1.000000000000000000 ) ) ;
#72 = CIRCLE ( 'NONE', #68, 12.69999999999999900 ) ;
#73 = DIRECTION ( 'NONE',  ( -1.000000000000000000, 1.224606353822377300E-016, 0.0000000000000000000 ) ) ;
#74 = CARTESIAN_POINT ( 'NONE',  ( 0.0000000000000000000, 12.69999999999989300, -1.832212523064189000 ) ) ;
#75 = DIRECTION ( 'NONE',  ( 1.000000000000000000, 0.0000000000000000000, 0.0000000000000000000 ) ) ;
#76 = CIRCLE ( 'NONE', #82, 49.06000000000000200 ) ;
#77 = STYLED_ITEM ( 'NONE', ( #91 ), #62 ) ;
#78 = DIRECTION ( 'NONE',  ( -1.224606353822377000E-016, -1.000000000000000000, 0.0000000000000000000 ) ) ;
#79 =( NAMED_UNIT ( * ) PLANE_ANGLE_UNIT ( ) SI_UNIT ( $, .RADIAN. ) );
#80 = CARTESIAN_POINT ( 'NONE',  ( -1.555250069354419500E-015, -12.70000000000000300, 0.1599071283095590800 ) ) ;
#81 = CARTESIAN_POINT ( 'NONE',  ( 0.0000000000000000000, 0.0000000000000000000, -47.22778747693579500 ) ) ;
#82 = AXIS2_PLACEMENT_3D ( 'NONE', #81, #73, #78 ) ;
#83 = CIRCLE ( 'NONE', #84, 131.5600000000000000 ) ;
#84 = AXIS2_PLACEMENT_3D ( 'NONE', #87, #86, #88 ) ;
#85 = PRESENTATION_LAYER_ASSIGNMENT (  '', '', ( #77 ) ) ;
#86 = DIRECTION ( 'NONE',  ( 1.000000000000000000, -0.0000000000000000000, 0.0000000000000000000 ) ) ;
#87 = CARTESIAN_POINT ( 'NONE',  ( 0.0000000000000000000, 0.0000000000000000000, -132.7777874769358000 ) ) ;
#88 = DIRECTION ( 'NONE',  ( 0.0000000000000000000, 0.0000000000000000000, -1.000000000000000000 ) ) ;
#89 =( LENGTH_UNIT ( ) NAMED_UNIT ( * ) SI_UNIT ( .MILLI., .METRE. ) );
#90 = MECHANICAL_DESIGN_GEOMETRIC_PRESENTATION_REPRESENTATION (  '', ( #77 ), #114 ) ;
#91 = PRESENTATION_STYLE_ASSIGNMENT (( #92 ) ) ;
#92 = SURFACE_STYLE_USAGE ( .BOTH. , #93 ) ;
#93 = SURFACE_SIDE_STYLE ('',( #94 ) ) ;
#94 = SURFACE_STYLE_FILL_AREA ( #95 ) ;
#95 = FILL_AREA_STYLE ('',( #97 ) ) ;
#96 = COLOUR_RGB ( '',0.7960784313725489700, 0.8235294117647058400, 0.9372549019607843100 ) ;
#97 = FILL_AREA_STYLE_COLOUR ( '', #96 ) ;
#98 = CARTESIAN_POINT ( 'NONE',  ( 0.0000000000000000000, 3.003959385926291200E-015, 1.832212523064202800 ) ) ;
#99 =( NAMED_UNIT ( * ) SI_UNIT ( $, .STERADIAN. ) SOLID_ANGLE_UNIT ( ) );
#100 = DIRECTION ( 'NONE',  ( 0.0000000000000000000, 0.0000000000000000000, 1.000000000000000000 ) ) ;
#101 =( GEOMETRIC_REPRESENTATION_CONTEXT ( 3 ) GLOBAL_UNCERTAINTY_ASSIGNED_CONTEXT ( ( #102 ) ) GLOBAL_UNIT_ASSIGNED_CONTEXT ( ( #126, #125, #103 ) ) REPRESENTATION_CONTEXT ( 'NONE', 'WORKASPACE' ) );
#102 = UNCERTAINTY_MEASURE_WITH_UNIT (LENGTH_MEASURE( 1.000000000000000100E-005 ), #126, 'distance_accuracy_value', 'NONE');
#103 =( NAMED_UNIT ( * ) SI_UNIT ( $, .STERADIAN. ) SOLID_ANGLE_UNIT ( ) );
#104 = FILL_AREA_STYLE ('',( #105 ) ) ;
#105 = FILL_AREA_STYLE_COLOUR ( '', #106 ) ;
#106 = COLOUR_RGB ( '',0.9568627450980391500, 0.9490196078431372100, 0.9607843137254902200 ) ;
#107 = FACE_OUTER_BOUND ( 'NONE', #64, .T. ) ;
#108 = DIRECTION ( 'NONE',  ( 0.0000000000000000000, 1.000000000000000000, 0.0000000000000000000 ) ) ;
#109 = DIRECTION ( 'NONE',  ( -1.000000000000000000, 0.0000000000000000000, 0.0000000000000000000 ) ) ;
#110 = AXIS2_PLACEMENT_3D ( 'NONE', #112, #109, #108 ) ;
#111 = CARTESIAN_POINT ( 'NONE',  ( 0.0000000000000000000, 0.0000000000000000000, 0.0000000000000000000 ) ) ;
#112 = CARTESIAN_POINT ( 'NONE',  ( 0.0000000000000000000, 0.0000000000000000000, -132.7777874769358000 ) ) ;
#113 = SPHERICAL_SURFACE ( 'NONE', #110, 131.5600000000000000 ) ;
#114 =( GEOMETRIC_REPRESENTATION_CONTEXT ( 3 ) GLOBAL_UNCERTAINTY_ASSIGNED_CONTEXT ( ( #132 ) ) GLOBAL_UNIT_ASSIGNED_CONTEXT ( ( #89, #79, #99 ) ) REPRESENTATION_CONTEXT ( 'NONE', 'WORKASPACE' ) );
#115 = PRESENTATION_STYLE_ASSIGNMENT (( #116 ) ) ;
#116 = SURFACE_STYLE_USAGE ( .BOTH. , #117 ) ;
#117 = SURFACE_SIDE_STYLE ('',( #118 ) ) ;
#118 = SURFACE_STYLE_FILL_AREA ( #119 ) ;
#119 = FILL_AREA_STYLE ('',( #120 ) ) ;
#120 = FILL_AREA_STYLE_COLOUR ( '', #121 ) ;
#121 = COLOUR_RGB ( '',0.7960784313725489700, 0.8235294117647058400, 0.9372549019607843100 ) ;
#122 = ADVANCED_BREP_SHAPE_REPRESENTATION ( '3453-E0W', ( #62, #130 ), #137 ) ;
#123 =( NAMED_UNIT ( * ) PLANE_ANGLE_UNIT ( ) SI_UNIT ( $, .RADIAN. ) );
#124 =( LENGTH_UNIT ( ) NAMED_UNIT ( * ) SI_UNIT ( .MILLI., .METRE. ) );
#125 =( NAMED_UNIT ( * ) PLANE_ANGLE_UNIT ( ) SI_UNIT ( $, .RADIAN. ) );
#126 =( LENGTH_UNIT ( ) NAMED_UNIT ( * ) SI_UNIT ( .MILLI., .METRE. ) );
#127 = MECHANICAL_DESIGN_GEOMETRIC_PRESENTATION_REPRESENTATION (  '', ( #129 ), #101 ) ;
#128 = PRESENTATION_LAYER_ASSIGNMENT (  '', '', ( #129 ) ) ;
#129 = STYLED_ITEM ( 'NONE', ( #115 ), #122 ) ;
#130 = AXIS2_PLACEMENT_3D ( 'NONE', #111, #100, #131 ) ;
#131 = DIRECTION ( 'NONE',  ( 1.000000000000000000, 0.0000000000000000000, 0.0000000000000000000 ) ) ;
#132 = UNCERTAINTY_MEASURE_WITH_UNIT (LENGTH_MEASURE( 1.000000000000000100E-005 ), #89, 'distance_accuracy_value', 'NONE');
#133 =( LENGTH_UNIT ( ) NAMED_UNIT ( * ) SI_UNIT ( .MILLI., .METRE. ) );
#134 = MECHANICAL_DESIGN_GEOMETRIC_PRESENTATION_REPRESENTATION (  '', ( #136 ), #147 ) ;
#135 = PRESENTATION_LAYER_ASSIGNMENT (  '', '', ( #136 ) ) ;
#136 = STYLED_ITEM ( 'NONE', ( #140 ), #65 ) ;
#137 =( GEOMETRIC_REPRESENTATION_CONTEXT ( 3 ) GLOBAL_UNCERTAINTY_ASSIGNED_CONTEXT ( ( #138 ) ) GLOBAL_UNIT_ASSIGNED_CONTEXT ( ( #124, #123, #139 ) ) REPRESENTATION_CONTEXT ( 'NONE', 'WORKASPACE' ) );
#138 = UNCERTAINTY_MEASURE_WITH_UNIT (LENGTH_MEASURE( 1.000000000000000100E-005 ), #124, 'distance_accuracy_value', 'NONE');
#139 =( NAMED_UNIT ( * ) SI_UNIT ( $, .STERADIAN. ) SOLID_ANGLE_UNIT ( ) );
#140 = PRESENTATION_STYLE_ASSIGNMENT (( #141 ) ) ;
#141 = SURFACE_STYLE_USAGE ( .BOTH. , #142 ) ;
#142 = SURFACE_SIDE_STYLE ('',( #143 ) ) ;
#143 = SURFACE_STYLE_FILL_AREA ( #104 ) ;
#144 = UNCERTAINTY_MEASURE_WITH_UNIT (LENGTH_MEASURE( 1.000000000000000100E-005 ), #133, 'distance_accuracy_value', 'NONE');
#145 =( NAMED_UNIT ( * ) SI_UNIT ( $, .STERADIAN. ) SOLID_ANGLE_UNIT ( ) );
#146 =( NAMED_UNIT ( * ) PLANE_ANGLE_UNIT ( ) SI_UNIT ( $, .RADIAN. ) );
#147 =( GEOMETRIC_REPRESENTATION_CONTEXT ( 3 ) GLOBAL_UNCERTAINTY_ASSIGNED_CONTEXT ( ( #144 ) ) GLOBAL_UNIT_ASSIGNED_CONTEXT ( ( #133, #146, #145 ) ) REPRESENTATION_CONTEXT ( 'NONE', 'WORKASPACE' ) );
#148 = CARTESIAN_POINT ( 'NONE',  ( 0.0000000000000000000, 0.0000000000000000000, 0.1599071283095599400 ) ) ;
#149 = DIRECTION ( 'NONE',  ( -0.0000000000000000000, -0.0000000000000000000, 1.000000000000000000 ) ) ;
#150 = DIRECTION ( 'NONE',  ( 1.000000000000000000, 0.0000000000000000000, 0.0000000000000000000 ) ) ;
#151 = DIRECTION ( 'NONE',  ( -0.0000000000000000000, -0.0000000000000000000, 1.000000000000000000 ) ) ;
#152 = CARTESIAN_POINT ( 'NONE',  ( 0.0000000000000000000, 0.0000000000000000000, -1.832212523064202800 ) ) ;
#153 = AXIS2_PLACEMENT_3D ( 'NONE', #152, #151, #150 ) ;
#154 = CIRCLE ( 'NONE', #153, 12.69999999999999900 ) ;
#155 = CARTESIAN_POINT ( 'NONE',  ( 0.0000000000000000000, 0.0000000000000000000, -47.22778747693579500 ) ) ;
#156 = DIRECTION ( 'NONE',  ( 1.000000000000000000, 0.0000000000000000000, 0.0000000000000000000 ) ) ;
#157 = DIRECTION ( 'NONE',  ( -0.0000000000000000000, -0.0000000000000000000, 1.000000000000000000 ) ) ;
#158 = AXIS2_PLACEMENT_3D ( 'NONE', #265, #157, #156 ) ;
#159 = CIRCLE ( 'NONE', #158, 12.70000000000000100 ) ;
#160 =( NAMED_UNIT ( * ) PLANE_ANGLE_UNIT ( ) SI_UNIT ( $, .RADIAN. ) );
#161 = UNCERTAINTY_MEASURE_WITH_UNIT (LENGTH_MEASURE( 1.000000000000000100E-005 ), #208, 'distance_accuracy_value', 'NONE');
#162 =( NAMED_UNIT ( * ) SI_UNIT ( $, .STERADIAN. ) SOLID_ANGLE_UNIT ( ) );
#163 = CARTESIAN_POINT ( 'NONE',  ( 0.0000000000000000000, 0.0000000000000000000, 9.212316277905259200 ) ) ;
#164 = AXIS2_PLACEMENT_3D ( 'NONE', #163, #67, #69 ) ;
#165 = CYLINDRICAL_SURFACE ( 'NONE', #164, 12.69999999999999900 ) ;
#166 =( GEOMETRIC_REPRESENTATION_CONTEXT ( 3 ) GLOBAL_UNCERTAINTY_ASSIGNED_CONTEXT ( ( #280 ) ) GLOBAL_UNIT_ASSIGNED_CONTEXT ( ( #283, #282, #281 ) ) REPRESENTATION_CONTEXT ( 'NONE', 'WORKASPACE' ) );
#167 = PRESENTATION_LAYER_ASSIGNMENT (  '', '', ( #305 ) ) ;
#168 = FACE_OUTER_BOUND ( 'NONE', #2, .T. ) ;
#169 = UNCERTAINTY_MEASURE_WITH_UNIT (LENGTH_MEASURE( 1.000000000000000100E-005 ), #177, 'distance_accuracy_value', 'NONE');
#170 =( NAMED_UNIT ( * ) SI_UNIT ( $, .STERADIAN. ) SOLID_ANGLE_UNIT ( ) );
#171 = VECTOR ( 'NONE', #227, 1000.000000000000000 ) ;
#172 = CARTESIAN_POINT ( 'NONE',  ( 12.69999999999999900, 0.0000000000000000000, 9.212316277905259200 ) ) ;
#173 = LINE ( 'NONE', #172, #171 ) ;
#174 = FILL_AREA_STYLE_COLOUR ( '', #225 ) ;
#175 = CARTESIAN_POINT ( 'NONE',  ( 0.0000000000000000000, 12.70000000000000300, 0.1599071283095590800 ) ) ;
#176 =( NAMED_UNIT ( * ) PLANE_ANGLE_UNIT ( ) SI_UNIT ( $, .RADIAN. ) );
#177 =( LENGTH_UNIT ( ) NAMED_UNIT ( * ) SI_UNIT ( .MILLI., .METRE. ) );
#178 = MECHANICAL_DESIGN_GEOMETRIC_PRESENTATION_REPRESENTATION (  '', ( #219 ), #307 ) ;
#179 =( LENGTH_UNIT ( ) NAMED_UNIT ( * ) SI_UNIT ( .MILLI., .METRE. ) );
#180 = MECHANICAL_DESIGN_GEOMETRIC_PRESENTATION_REPRESENTATION (  '', ( #182 ), #249 ) ;
#181 = PRESENTATION_LAYER_ASSIGNMENT (  '', '', ( #182 ) ) ;
#182 = STYLED_ITEM ( 'NONE', ( #183 ), #46 ) ;
#183 = PRESENTATION_STYLE_ASSIGNMENT (( #184 ) ) ;
#184 = SURFACE_STYLE_USAGE ( .BOTH. , #185 ) ;
#185 = SURFACE_SIDE_STYLE ('',( #186 ) ) ;
#186 = SURFACE_STYLE_FILL_AREA ( #187 ) ;
#187 = FILL_AREA_STYLE ('',( #188 ) ) ;
#188 = FILL_AREA_STYLE_COLOUR ( '', #189 ) ;
#189 = COLOUR_RGB ( '',0.9568627450980391500, 0.9490196078431372100, 0.9607843137254902200 ) ;
#190 = FACE_OUTER_BOUND ( 'NONE', #49, .T. ) ;
#191 = CARTESIAN_POINT ( 'NONE',  ( 0.0000000000000000000, 8.055460595443598600E-015, -1.217787476935794400 ) ) ;
#192 = DIRECTION ( 'NONE',  ( -1.224606353822377500E-016, -1.000000000000000000, 0.0000000000000000000 ) ) ;
#193 = DIRECTION ( 'NONE',  ( -1.000000000000000000, 1.224606353822377300E-016, 0.0000000000000000000 ) ) ;
#194 = CARTESIAN_POINT ( 'NONE',  ( 0.0000000000000000000, 0.0000000000000000000, -132.7777874769358000 ) ) ;
#195 = AXIS2_PLACEMENT_3D ( 'NONE', #194, #193, #192 ) ;
#196 = CIRCLE ( 'NONE', #195, 131.5600000000000000 ) ;
#197 = CARTESIAN_POINT ( 'NONE',  ( 12.69999999999999900, 0.0000000000000000000, -1.832212523064202800 ) ) ;
#198 = CARTESIAN_POINT ( 'NONE',  ( -1.555250069354405900E-015, -12.69999999999989300, -1.832212523064189000 ) ) ;
#199 = DIRECTION ( 'NONE',  ( 1.000000000000000000, 0.0000000000000000000, 0.0000000000000000000 ) ) ;
#200 = DIRECTION ( 'NONE',  ( -0.0000000000000000000, -0.0000000000000000000, 1.000000000000000000 ) ) ;
#201 = CARTESIAN_POINT ( 'NONE',  ( 0.0000000000000000000, 0.0000000000000000000, -1.832212523064202800 ) ) ;
#202 = AXIS2_PLACEMENT_3D ( 'NONE', #201, #200, #199 ) ;
#203 = CIRCLE ( 'NONE', #202, 12.69999999999999900 ) ;
#204 = DIRECTION ( 'NONE',  ( 0.0000000000000000000, 0.0000000000000000000, -1.000000000000000000 ) ) ;
#205 = DIRECTION ( 'NONE',  ( 1.000000000000000000, 0.0000000000000000000, 0.0000000000000000000 ) ) ;
#206 = AXIS2_PLACEMENT_3D ( 'NONE', #155, #205, #204 ) ;
#207 = CIRCLE ( 'NONE', #206, 49.06000000000000200 ) ;
#208 =( LENGTH_UNIT ( ) NAMED_UNIT ( * ) SI_UNIT ( .MILLI., .METRE. ) );
#209 = DIRECTION ( 'NONE',  ( 0.0000000000000000000, 1.000000000000000000, 0.0000000000000000000 ) ) ;
#210 = DIRECTION ( 'NONE',  ( -1.000000000000000000, 0.0000000000000000000, 0.0000000000000000000 ) ) ;
#211 = CARTESIAN_POINT ( 'NONE',  ( 0.0000000000000000000, 0.0000000000000000000, -132.7777874769358000 ) ) ;
#212 = SPHERICAL_SURFACE ( 'NONE', #296, 49.06000000000000200 ) ;
#213 =( GEOMETRIC_REPRESENTATION_CONTEXT ( 3 ) GLOBAL_UNCERTAINTY_ASSIGNED_CONTEXT ( ( #214 ) ) GLOBAL_UNIT_ASSIGNED_CONTEXT ( ( #217, #216, #215 ) ) REPRESENTATION_CONTEXT ( 'NONE', 'WORKASPACE' ) );
#214 = UNCERTAINTY_MEASURE_WITH_UNIT (LENGTH_MEASURE( 1.000000000000000100E-005 ), #217, 'distance_accuracy_value', 'NONE');
#215 =( NAMED_UNIT ( * ) SI_UNIT ( $, .STERADIAN. ) SOLID_ANGLE_UNIT ( ) );
#216 =( NAMED_UNIT ( * ) PLANE_ANGLE_UNIT ( ) SI_UNIT ( $, .RADIAN. ) );
#217 =( LENGTH_UNIT ( ) NAMED_UNIT ( * ) SI_UNIT ( .MILLI., .METRE. ) );
#218 = PRESENTATION_LAYER_ASSIGNMENT (  '', '', ( #219 ) ) ;
#219 = STYLED_ITEM ( 'NONE', ( #220 ), #17 ) ;
#220 = PRESENTATION_STYLE_ASSIGNMENT (( #221 ) ) ;
#221 = SURFACE_STYLE_USAGE ( .BOTH. , #222 ) ;
#222 = SURFACE_SIDE_STYLE ('',( #223 ) ) ;
#223 = SURFACE_STYLE_FILL_AREA ( #224 ) ;
#224 = FILL_AREA_STYLE ('',( #174 ) ) ;
#225 = COLOUR_RGB ( '',0.9568627450980391500, 0.9490196078431372100, 0.9607843137254902200 ) ;
#226 = FACE_OUTER_BOUND ( 'NONE', #10, .T. ) ;
#227 = DIRECTION ( 'NONE',  ( -0.0000000000000000000, -0.0000000000000000000, 1.000000000000000000 ) ) ;
#228 = MECHANICAL_DESIGN_GEOMETRIC_PRESENTATION_REPRESENTATION (  '', ( #230 ), #213 ) ;
#229 = PRESENTATION_LAYER_ASSIGNMENT (  '', '', ( #230 ) ) ;
#230 = STYLED_ITEM ( 'NONE', ( #231 ), #48 ) ;
#231 = PRESENTATION_STYLE_ASSIGNMENT (( #232 ) ) ;
#232 = SURFACE_STYLE_USAGE ( .BOTH. , #233 ) ;
#233 = SURFACE_SIDE_STYLE ('',( #234 ) ) ;
#234 = SURFACE_STYLE_FILL_AREA ( #235 ) ;
#235 = FILL_AREA_STYLE ('',( #242 ) ) ;
#236 = COLOUR_RGB ( '',0.9568627450980391500, 0.9490196078431372100, 0.9607843137254902200 ) ;
#237 = FACE_OUTER_BOUND ( 'NONE', #42, .T. ) ;
#238 = DIRECTION ( 'NONE',  ( 1.000000000000000000, 0.0000000000000000000, 0.0000000000000000000 ) ) ;
#239 = DIRECTION ( 'NONE',  ( -0.0000000000000000000, -0.0000000000000000000, 1.000000000000000000 ) ) ;
#240 = CARTESIAN_POINT ( 'NONE',  ( 0.0000000000000000000, 0.0000000000000000000, -1.832212523064202800 ) ) ;
#241 = AXIS2_PLACEMENT_3D ( 'NONE', #240, #239, #238 ) ;
#242 = FILL_AREA_STYLE_COLOUR ( '', #236 ) ;
#243 = DIRECTION ( 'NONE',  ( 1.000000000000000000, 0.0000000000000000000, 0.0000000000000000000 ) ) ;
#244 = DIRECTION ( 'NONE',  ( -0.0000000000000000000, -0.0000000000000000000, 1.000000000000000000 ) ) ;
#245 = CARTESIAN_POINT ( 'NONE',  ( 0.0000000000000000000, 0.0000000000000000000, 9.212316277905259200 ) ) ;
#246 = AXIS2_PLACEMENT_3D ( 'NONE', #245, #244, #243 ) ;
#247 = CIRCLE ( 'NONE', #241, 12.69999999999999900 ) ;
#248 = CYLINDRICAL_SURFACE ( 'NONE', #246, 12.69999999999999900 ) ;
#249 =( GEOMETRIC_REPRESENTATION_CONTEXT ( 3 ) GLOBAL_UNCERTAINTY_ASSIGNED_CONTEXT ( ( #250 ) ) GLOBAL_UNIT_ASSIGNED_CONTEXT ( ( #179, #252, #251 ) ) REPRESENTATION_CONTEXT ( 'NONE', 'WORKASPACE' ) );
#250 = UNCERTAINTY_MEASURE_WITH_UNIT (LENGTH_MEASURE( 1.000000000000000100E-005 ), #179, 'distance_accuracy_value', 'NONE');
#251 =( NAMED_UNIT ( * ) SI_UNIT ( $, .STERADIAN. ) SOLID_ANGLE_UNIT ( ) );
#252 =( NAMED_UNIT ( * ) PLANE_ANGLE_UNIT ( ) SI_UNIT ( $, .RADIAN. ) );
#253 = CARTESIAN_POINT ( 'NONE',  ( 0.0000000000000000000, 0.0000000000000000000, 0.1599071283095599400 ) ) ;
#254 = AXIS2_PLACEMENT_3D ( 'NONE', #253, #268, #267 ) ;
#255 = DIRECTION ( 'NONE',  ( 0.0000000000000000000, 1.000000000000000000, 0.0000000000000000000 ) ) ;
#256 = DIRECTION ( 'NONE',  ( -1.000000000000000000, 0.0000000000000000000, 0.0000000000000000000 ) ) ;
#257 = CARTESIAN_POINT ( 'NONE',  ( 0.0000000000000000000, 0.0000000000000000000, -47.22778747693579500 ) ) ;
#258 = AXIS2_PLACEMENT_3D ( 'NONE', #257, #256, #255 ) ;
#259 = CIRCLE ( 'NONE', #254, 12.70000000000000100 ) ;
#260 = DIRECTION ( 'NONE',  ( 1.000000000000000000, 0.0000000000000000000, 0.0000000000000000000 ) ) ;
#261 = DIRECTION ( 'NONE',  ( -0.0000000000000000000, -0.0000000000000000000, 1.000000000000000000 ) ) ;
#262 = CARTESIAN_POINT ( 'NONE',  ( 0.0000000000000000000, 0.0000000000000000000, 0.1599071283095599400 ) ) ;
#263 = AXIS2_PLACEMENT_3D ( 'NONE', #262, #261, #260 ) ;
#264 = CIRCLE ( 'NONE', #263, 12.70000000000000100 ) ;
#265 = CARTESIAN_POINT ( 'NONE',  ( 0.0000000000000000000, 0.0000000000000000000, 0.1599071283095599400 ) ) ;
#266 = CARTESIAN_POINT ( 'NONE',  ( 12.70000000000000300, 0.0000000000000000000, 0.1599071283095599400 ) ) ;
#267 = DIRECTION ( 'NONE',  ( 1.000000000000000000, 0.0000000000000000000, 0.0000000000000000000 ) ) ;
#268 = DIRECTION ( 'NONE',  ( -0.0000000000000000000, -0.0000000000000000000, 1.000000000000000000 ) ) ;
#269 = SURFACE_STYLE_FILL_AREA ( #271 ) ;
#270 = MECHANICAL_DESIGN_GEOMETRIC_PRESENTATION_REPRESENTATION (  '', ( #305 ), #308 ) ;
#271 = FILL_AREA_STYLE ('',( #276 ) ) ;
#272 = PRESENTATION_STYLE_ASSIGNMENT (( #275 ) ) ;
#273 = SPHERICAL_SURFACE ( 'NONE', #310, 131.5600000000000000 ) ;
#274 = SURFACE_SIDE_STYLE ('',( #269 ) ) ;
#275 = SURFACE_STYLE_USAGE ( .BOTH. , #274 ) ;
#276 = FILL_AREA_STYLE_COLOUR ( '', #309 ) ;
#277 = VECTOR ( 'NONE', #149, 1000.000000000000000 ) ;
#278 = CARTESIAN_POINT ( 'NONE',  ( -12.69999999999999900, 1.555250069354419100E-015, 9.212316277905259200 ) ) ;
#279 = LINE ( 'NONE', #278, #277 ) ;
#280 = UNCERTAINTY_MEASURE_WITH_UNIT (LENGTH_MEASURE( 1.000000000000000100E-005 ), #283, 'distance_accuracy_value', 'NONE');
#281 =( NAMED_UNIT ( * ) SI_UNIT ( $, .STERADIAN. ) SOLID_ANGLE_UNIT ( ) );
#282 =( NAMED_UNIT ( * ) PLANE_ANGLE_UNIT ( ) SI_UNIT ( $, .RADIAN. ) );
#283 =( LENGTH_UNIT ( ) NAMED_UNIT ( * ) SI_UNIT ( .MILLI., .METRE. ) );
#284 = MECHANICAL_DESIGN_GEOMETRIC_PRESENTATION_REPRESENTATION (  '', ( #286 ), #166 ) ;
#285 = PRESENTATION_LAYER_ASSIGNMENT (  '', '', ( #286 ) ) ;
#286 = STYLED_ITEM ( 'NONE', ( #287 ), #51 ) ;
#287 = PRESENTATION_STYLE_ASSIGNMENT (( #288 ) ) ;
#288 = SURFACE_STYLE_USAGE ( .BOTH. , #289 ) ;
#289 = SURFACE_SIDE_STYLE ('',( #290 ) ) ;
#290 = SURFACE_STYLE_FILL_AREA ( #291 ) ;
#291 = FILL_AREA_STYLE ('',( #298 ) ) ;
#292 = COLOUR_RGB ( '',0.9568627450980391500, 0.9490196078431372100, 0.9607843137254902200 ) ;
#293 = DIRECTION ( 'NONE',  ( 0.0000000000000000000, 1.000000000000000000, 0.0000000000000000000 ) ) ;
#294 = DIRECTION ( 'NONE',  ( -1.000000000000000000, 0.0000000000000000000, 0.0000000000000000000 ) ) ;
#295 = CARTESIAN_POINT ( 'NONE',  ( 0.0000000000000000000, 0.0000000000000000000, -47.22778747693579500 ) ) ;
#296 = AXIS2_PLACEMENT_3D ( 'NONE', #295, #294, #293 ) ;
#297 = FACE_OUTER_BOUND ( 'NONE', #45, .T. ) ;
#298 = FILL_AREA_STYLE_COLOUR ( '', #292 ) ;
#299 = CARTESIAN_POINT ( 'NONE',  ( -12.69999999999999900, 1.555250069354419100E-015, -1.832212523064202800 ) ) ;
#300 = CARTESIAN_POINT ( 'NONE',  ( -12.70000000000000300, 1.555250069354419500E-015, 0.1599071283095599400 ) ) ;
#301 = DIRECTION ( 'NONE',  ( 1.000000000000000000, 0.0000000000000000000, 0.0000000000000000000 ) ) ;
#302 = DIRECTION ( 'NONE',  ( -0.0000000000000000000, -0.0000000000000000000, 1.000000000000000000 ) ) ;
#303 = AXIS2_PLACEMENT_3D ( 'NONE', #148, #302, #301 ) ;
#304 = CIRCLE ( 'NONE', #303, 12.70000000000000100 ) ;
#305 = STYLED_ITEM ( 'NONE', ( #272 ), #3 ) ;
#306 = SPHERICAL_SURFACE ( 'NONE', #258, 49.06000000000000200 ) ;
#307 =( GEOMETRIC_REPRESENTATION_CONTEXT ( 3 ) GLOBAL_UNCERTAINTY_ASSIGNED_CONTEXT ( ( #169 ) ) GLOBAL_UNIT_ASSIGNED_CONTEXT ( ( #177, #176, #170 ) ) REPRESENTATION_CONTEXT ( 'NONE', 'WORKASPACE' ) );
#308 =( GEOMETRIC_REPRESENTATION_CONTEXT ( 3 ) GLOBAL_UNCERTAINTY_ASSIGNED_CONTEXT ( ( #161 ) ) GLOBAL_UNIT_ASSIGNED_CONTEXT ( ( #208, #160, #162 ) ) REPRESENTATION_CONTEXT ( 'NONE', 'WORKASPACE' ) );
#309 = COLOUR_RGB ( '',0.9568627450980391500, 0.9490196078431372100, 0.9607843137254902200 ) ;
#310 = AXIS2_PLACEMENT_3D ( 'NONE', #211, #210, #209 ) ;
#311 = APPLICATION_CONTEXT ( 'automotive_design' ) ;
#312 = PRODUCT_RELATED_PRODUCT_CATEGORY ( 'part', '', ( #318 ) ) ;
#313 = PRODUCT_DEFINITION_FORMATION_WITH_SPECIFIED_SOURCE ( 'ANY', '', #318, .NOT_KNOWN. ) ;
#314 = PRODUCT_DEFINITION_CONTEXT ( 'detailed design', #317, 'design' ) ;
#315 = PRODUCT_DEFINITION ( 'UNKNOWN', '', #313, #314 ) ;
#316 = APPLICATION_PROTOCOL_DEFINITION ( 'draft international standard', 'automotive_design', 1998, #317 ) ;
#317 = APPLICATION_CONTEXT ( 'automotive_design' ) ;
#318 = PRODUCT ( '3453-E0W', '3453-E0W', '', ( #319 ) ) ;
#319 = PRODUCT_CONTEXT ( 'NONE', #311, 'mechanical' ) ;
#320 = APPLICATION_PROTOCOL_DEFINITION ( 'draft international standard', 'automotive_design', 1998, #311 ) ;
#321 = SHAPE_DEFINITION_REPRESENTATION ( #322, #122 ) ;
#322 = PRODUCT_DEFINITION_SHAPE ( 'NONE', 'NONE',  #315 ) ;
ENDSEC;
END-ISO-10303-21;
