ISO-10303-21;
HEADER;
FILE_DESCRIPTION (( 'STEP AP203' ),
    '1' );
FILE_NAME ('Web Model 20464_20507.step',
    '2022-06-06T20:40:32',
    ( 'WC' ),
    ( 'Windows Central' ),
    'SwSTEP 2.0',
    'SolidWorks 2021',
    '' );
FILE_SCHEMA (( 'CONFIG_CONTROL_DESIGN' ));
ENDSEC;

DATA;
#1 = ADVANCED_FACE ( 'NONE', ( #173 ), #86, .T. ) ;
#2 = AXIS2_PLACEMENT_3D ( 'NONE', #160, #38, #14 ) ;
#3 = DATE_AND_TIME ( #55, #27 ) ;
#4 = DIRECTION ( 'NONE',  ( 1.000000000000000000, 0.000000000000000000, -0.000000000000000000 ) ) ;
#5 = CALENDAR_DATE ( 2022, 6, 6 ) ;
#6 = AXIS2_PLACEMENT_3D ( 'NONE', #73, #10, #63 ) ;
#7 = ORGANIZATION ( 'UNSPECIFIED', 'UNSPECIFIED', '' ) ;
#8 = APPROVAL_DATE_TIME ( #138, #131 ) ;
#9 = APPROVAL ( #111, 'UNSPECIFIED' ) ;
#10 = DIRECTION ( 'NONE',  ( 0.000000000000000000, 0.000000000000000000, 1.000000000000000000 ) ) ;
#11 = CLOSED_SHELL ( 'NONE', ( #1, #172, #128, #35 ) ) ;
#12 = EDGE_LOOP ( 'NONE', ( #82, #72, #124, #159 ) ) ;
#13 = DIRECTION ( 'NONE',  ( 1.000000000000000000, 0.000000000000000000, 0.000000000000000000 ) ) ;
#14 = DIRECTION ( 'NONE',  ( -1.000000000000000000, 0.000000000000000000, 0.000000000000000000 ) ) ;
#15 = COORDINATED_UNIVERSAL_TIME_OFFSET ( 5, 0, .BEHIND. ) ;
#16 = PERSON_AND_ORGANIZATION ( #22, #7 ) ;
#17 = PRODUCT_DEFINITION_FORMATION_WITH_SPECIFIED_SOURCE ( 'ANY', '', #162, .NOT_KNOWN. ) ;
#18 =( GEOMETRIC_REPRESENTATION_CONTEXT ( 3 ) GLOBAL_UNCERTAINTY_ASSIGNED_CONTEXT ( ( #155 ) ) GLOBAL_UNIT_ASSIGNED_CONTEXT ( ( #47, #49, #153 ) ) REPRESENTATION_CONTEXT ( 'NONE', 'WORKASPACE' ) );
#19 = CARTESIAN_POINT ( 'NONE',  ( -10.00000000000000000, 0.000000000000000000, 2.000000000000000000 ) ) ;
#20 = PERSON_AND_ORGANIZATION_ROLE ( 'creator' ) ;
#21 = FACE_OUTER_BOUND ( 'NONE', #12, .T. ) ;
#22 = PERSON ( 'UNSPECIFIED', 'UNSPECIFIED', 'UNSPECIFIED', ('UNSPECIFIED'), ('UNSPECIFIED'), ('UNSPECIFIED') ) ;
#23 = PLANE ( 'NONE',  #28 ) ;
#24 = LOCAL_TIME ( 16, 40, 32.00000000000000000, #59 ) ;
#25 = DIRECTION ( 'NONE',  ( 1.000000000000000000, 0.000000000000000000, -0.000000000000000000 ) ) ;
#26 = CARTESIAN_POINT ( 'NONE',  ( 10.00000000000000000, 1.224646799147353256E-15, 2.000000000000000000 ) ) ;
#27 = LOCAL_TIME ( 16, 40, 32.00000000000000000, #66 ) ;
#28 = AXIS2_PLACEMENT_3D ( 'NONE', #150, #89, #4 ) ;
#29 = EDGE_CURVE ( 'NONE', #54, #161, #133, .T. ) ;
#30 = CALENDAR_DATE ( 2022, 6, 6 ) ;
#31 = CARTESIAN_POINT ( 'NONE',  ( -10.00000000000000000, 0.000000000000000000, 2.000000000000000000 ) ) ;
#32 = LINE ( 'NONE', #19, #130 ) ;
#33 = DATE_AND_TIME ( #5, #104 ) ;
#34 = AXIS2_PLACEMENT_3D ( 'NONE', #140, #65, #25 ) ;
#35 = ADVANCED_FACE ( 'NONE', ( #39 ), #85, .F. ) ;
#36 = PERSON_AND_ORGANIZATION_ROLE ( 'design_owner' ) ;
#37 = CC_DESIGN_DATE_AND_TIME_ASSIGNMENT ( #3, #91, ( #110 ) ) ;
#38 = DIRECTION ( 'NONE',  ( -0.000000000000000000, -0.000000000000000000, -1.000000000000000000 ) ) ;
#39 = FACE_OUTER_BOUND ( 'NONE', #102, .T. ) ;
#40 = CARTESIAN_POINT ( 'NONE',  ( 10.00000000000000000, 1.224646799147353256E-15, 0.000000000000000000 ) ) ;
#41 = CC_DESIGN_APPROVAL ( #119, ( #110 ) ) ;
#42 = PRODUCT_DEFINITION ( 'UNKNOWN', '', #17, #168 ) ;
#43 = DATE_AND_TIME ( #30, #93 ) ;
#44 = PERSON_AND_ORGANIZATION_ROLE ( 'classification_officer' ) ;
#45 = PERSON_AND_ORGANIZATION_ROLE ( 'design_supplier' ) ;
#46 = DIRECTION ( 'NONE',  ( -0.000000000000000000, -0.000000000000000000, -1.000000000000000000 ) ) ;
#47 =( LENGTH_UNIT ( ) NAMED_UNIT ( * ) SI_UNIT ( .MILLI., .METRE. ) );
#48 = CC_DESIGN_DATE_AND_TIME_ASSIGNMENT ( #33, #58, ( #42 ) ) ;
#49 =( NAMED_UNIT ( * ) PLANE_ANGLE_UNIT ( ) SI_UNIT ( $, .RADIAN. ) );
#50 = APPROVAL_ROLE ( '' ) ;
#51 = CARTESIAN_POINT ( 'NONE',  ( -10.00000000000000000, 0.000000000000000000, 0.000000000000000000 ) ) ;
#52 = VERTEX_POINT ( 'NONE', #40 ) ;
#53 = EDGE_LOOP ( 'NONE', ( #114, #98 ) ) ;
#54 = VERTEX_POINT ( 'NONE', #26 ) ;
#55 = CALENDAR_DATE ( 2022, 6, 6 ) ;
#56 = PERSON_AND_ORGANIZATION ( #22, #7 ) ;
#57 = MECHANICAL_CONTEXT ( 'NONE', #112, 'mechanical' ) ;
#58 = DATE_TIME_ROLE ( 'creation_date' ) ;
#59 = COORDINATED_UNIVERSAL_TIME_OFFSET ( 5, 0, .BEHIND. ) ;
#60 = CARTESIAN_POINT ( 'NONE',  ( 0.000000000000000000, 0.000000000000000000, 0.000000000000000000 ) ) ;
#61 = COORDINATED_UNIVERSAL_TIME_OFFSET ( 5, 0, .BEHIND. ) ;
#62 = ORIENTED_EDGE ( 'NONE', *, *, #143, .T. ) ;
#63 = DIRECTION ( 'NONE',  ( 1.000000000000000000, 0.000000000000000000, 0.000000000000000000 ) ) ;
#64 = APPROVAL_PERSON_ORGANIZATION ( #129, #119, #67 ) ;
#65 = DIRECTION ( 'NONE',  ( 0.000000000000000000, 0.000000000000000000, 1.000000000000000000 ) ) ;
#66 = COORDINATED_UNIVERSAL_TIME_OFFSET ( 5, 0, .BEHIND. ) ;
#67 = APPROVAL_ROLE ( '' ) ;
#68 = DIRECTION ( 'NONE',  ( -0.000000000000000000, -0.000000000000000000, -1.000000000000000000 ) ) ;
#69 = CC_DESIGN_PERSON_AND_ORGANIZATION_ASSIGNMENT ( #96, #36, ( #162 ) ) ;
#70 = APPROVAL_ROLE ( '' ) ;
#71 = CYLINDRICAL_SURFACE ( 'NONE', #175, 10.00000000000000000 ) ;
#72 = ORIENTED_EDGE ( 'NONE', *, *, #99, .F. ) ;
#73 = CARTESIAN_POINT ( 'NONE',  ( 0.000000000000000000, 0.000000000000000000, 0.000000000000000000 ) ) ;
#74 = EDGE_CURVE ( 'NONE', #115, #52, #127, .T. ) ;
#75 = CARTESIAN_POINT ( 'NONE',  ( 10.00000000000000000, 1.224646799147353256E-15, 2.000000000000000000 ) ) ;
#76 = CALENDAR_DATE ( 2022, 6, 6 ) ;
#77 = CC_DESIGN_PERSON_AND_ORGANIZATION_ASSIGNMENT ( #165, #45, ( #17 ) ) ;
#78 = APPROVAL_DATE_TIME ( #43, #119 ) ;
#79 = EDGE_CURVE ( 'NONE', #54, #52, #141, .T. ) ;
#80 = PERSON_AND_ORGANIZATION ( #22, #7 ) ;
#81 = CARTESIAN_POINT ( 'NONE',  ( 0.000000000000000000, 0.000000000000000000, 2.000000000000000000 ) ) ;
#82 = ORIENTED_EDGE ( 'NONE', *, *, #79, .F. ) ;
#83 = CALENDAR_DATE ( 2022, 6, 6 ) ;
#84 = CIRCLE ( 'NONE', #121, 10.00000000000000000 ) ;
#85 = PLANE ( 'NONE',  #34 ) ;
#86 = CYLINDRICAL_SURFACE ( 'NONE', #2, 10.00000000000000000 ) ;
#87 = DIRECTION ( 'NONE',  ( 1.000000000000000000, 0.000000000000000000, 0.000000000000000000 ) ) ;
#88 = PRODUCT_DEFINITION_SHAPE ( 'NONE', 'NONE',  #42 ) ;
#89 = DIRECTION ( 'NONE',  ( 0.000000000000000000, 0.000000000000000000, 1.000000000000000000 ) ) ;
#90 = CC_DESIGN_APPROVAL ( #131, ( #17 ) ) ;
#91 = DATE_TIME_ROLE ( 'classification_date' ) ;
#92 = APPROVAL_PERSON_ORGANIZATION ( #154, #131, #50 ) ;
#93 = LOCAL_TIME ( 16, 40, 32.00000000000000000, #15 ) ;
#94 = DIRECTION ( 'NONE',  ( 0.000000000000000000, 0.000000000000000000, 1.000000000000000000 ) ) ;
#95 = FACE_OUTER_BOUND ( 'NONE', #53, .T. ) ;
#96 = PERSON_AND_ORGANIZATION ( #22, #7 ) ;
#97 = CC_DESIGN_PERSON_AND_ORGANIZATION_ASSIGNMENT ( #156, #135, ( #17 ) ) ;
#98 = ORIENTED_EDGE ( 'NONE', *, *, #29, .T. ) ;
#99 = EDGE_CURVE ( 'NONE', #161, #54, #84, .T. ) ;
#100 = DIRECTION ( 'NONE',  ( 1.000000000000000000, 0.000000000000000000, 0.000000000000000000 ) ) ;
#101 = CARTESIAN_POINT ( 'NONE',  ( 0.000000000000000000, 0.000000000000000000, 0.000000000000000000 ) ) ;
#102 = EDGE_LOOP ( 'NONE', ( #158, #136 ) ) ;
#103 = APPLICATION_CONTEXT ( 'configuration controlled 3d designs of mechanical parts and assemblies' ) ;
#104 = LOCAL_TIME ( 16, 40, 32.00000000000000000, #61 ) ;
#105 = DATE_AND_TIME ( #76, #24 ) ;
#106 = APPROVAL_PERSON_ORGANIZATION ( #80, #9, #70 ) ;
#107 = PRODUCT_RELATED_PRODUCT_CATEGORY ( 'detail', '', ( #162 ) ) ;
#108 = SECURITY_CLASSIFICATION_LEVEL ( 'unclassified' ) ;
#109 = AXIS2_PLACEMENT_3D ( 'NONE', #174, #170, #100 ) ;
#110 = SECURITY_CLASSIFICATION ( '', '', #108 ) ;
#111 = APPROVAL_STATUS ( 'not_yet_approved' ) ;
#112 = APPLICATION_CONTEXT ( 'configuration controlled 3d designs of mechanical parts and assemblies' ) ;
#113 = DIRECTION ( 'NONE',  ( 0.000000000000000000, 0.000000000000000000, 1.000000000000000000 ) ) ;
#114 = ORIENTED_EDGE ( 'NONE', *, *, #99, .T. ) ;
#115 = VERTEX_POINT ( 'NONE', #51 ) ;
#116 = EDGE_LOOP ( 'NONE', ( #139, #125, #62, #169 ) ) ;
#117 = APPROVAL_DATE_TIME ( #105, #9 ) ;
#118 = DIRECTION ( 'NONE',  ( -0.000000000000000000, -0.000000000000000000, -1.000000000000000000 ) ) ;
#119 = APPROVAL ( #146, 'UNSPECIFIED' ) ;
#120 = APPLICATION_PROTOCOL_DEFINITION ( 'international standard', 'config_control_design', 1994, #112 ) ;
#121 = AXIS2_PLACEMENT_3D ( 'NONE', #145, #113, #87 ) ;
#122 = DIRECTION ( 'NONE',  ( -1.000000000000000000, 0.000000000000000000, 0.000000000000000000 ) ) ;
#123 = CC_DESIGN_APPROVAL ( #9, ( #42 ) ) ;
#124 = ORIENTED_EDGE ( 'NONE', *, *, #167, .T. ) ;
#125 = ORIENTED_EDGE ( 'NONE', *, *, #79, .T. ) ;
#126 = CC_DESIGN_PERSON_AND_ORGANIZATION_ASSIGNMENT ( #56, #44, ( #110 ) ) ;
#127 = CIRCLE ( 'NONE', #6, 10.00000000000000000 ) ;
#128 = ADVANCED_FACE ( 'NONE', ( #95 ), #23, .T. ) ;
#129 = PERSON_AND_ORGANIZATION ( #22, #7 ) ;
#130 = VECTOR ( 'NONE', #68, 1000.000000000000000 ) ;
#131 = APPROVAL ( #134, 'UNSPECIFIED' ) ;
#132 = LOCAL_TIME ( 16, 40, 32.00000000000000000, #157 ) ;
#133 = CIRCLE ( 'NONE', #109, 10.00000000000000000 ) ;
#134 = APPROVAL_STATUS ( 'not_yet_approved' ) ;
#135 = PERSON_AND_ORGANIZATION_ROLE ( 'creator' ) ;
#136 = ORIENTED_EDGE ( 'NONE', *, *, #143, .F. ) ;
#137 = CC_DESIGN_SECURITY_CLASSIFICATION ( #110, ( #17 ) ) ;
#138 = DATE_AND_TIME ( #83, #132 ) ;
#139 = ORIENTED_EDGE ( 'NONE', *, *, #29, .F. ) ;
#140 = CARTESIAN_POINT ( 'NONE',  ( 0.000000000000000000, 0.000000000000000000, 0.000000000000000000 ) ) ;
#141 = LINE ( 'NONE', #75, #149 ) ;
#142 = DIRECTION ( 'NONE',  ( 0.000000000000000000, 0.000000000000000000, 1.000000000000000000 ) ) ;
#143 = EDGE_CURVE ( 'NONE', #52, #115, #144, .T. ) ;
#144 = CIRCLE ( 'NONE', #166, 10.00000000000000000 ) ;
#145 = CARTESIAN_POINT ( 'NONE',  ( 0.000000000000000000, 0.000000000000000000, 2.000000000000000000 ) ) ;
#146 = APPROVAL_STATUS ( 'not_yet_approved' ) ;
#147 = SHAPE_DEFINITION_REPRESENTATION ( #88, #164 ) ;
#148 = DIRECTION ( 'NONE',  ( 1.000000000000000000, 0.000000000000000000, 0.000000000000000000 ) ) ;
#149 = VECTOR ( 'NONE', #118, 1000.000000000000000 ) ;
#150 = CARTESIAN_POINT ( 'NONE',  ( 0.000000000000000000, 0.000000000000000000, 2.000000000000000000 ) ) ;
#151 = APPLICATION_PROTOCOL_DEFINITION ( 'international standard', 'config_control_design', 1994, #103 ) ;
#152 = CC_DESIGN_PERSON_AND_ORGANIZATION_ASSIGNMENT ( #16, #20, ( #42 ) ) ;
#153 =( NAMED_UNIT ( * ) SI_UNIT ( $, .STERADIAN. ) SOLID_ANGLE_UNIT ( ) );
#154 = PERSON_AND_ORGANIZATION ( #22, #7 ) ;
#155 = UNCERTAINTY_MEASURE_WITH_UNIT (LENGTH_MEASURE( 1.000000000000000082E-05 ), #47, 'distance_accuracy_value', 'NONE');
#156 = PERSON_AND_ORGANIZATION ( #22, #7 ) ;
#157 = COORDINATED_UNIVERSAL_TIME_OFFSET ( 5, 0, .BEHIND. ) ;
#158 = ORIENTED_EDGE ( 'NONE', *, *, #74, .F. ) ;
#159 = ORIENTED_EDGE ( 'NONE', *, *, #74, .T. ) ;
#160 = CARTESIAN_POINT ( 'NONE',  ( 0.000000000000000000, 0.000000000000000000, 2.000000000000000000 ) ) ;
#161 = VERTEX_POINT ( 'NONE', #31 ) ;
#162 = PRODUCT ( 'Web Model 20464_20507', 'Web Model 20464_20507', '', ( #57 ) ) ;
#163 = AXIS2_PLACEMENT_3D ( 'NONE', #101, #142, #13 ) ;
#164 = ADVANCED_BREP_SHAPE_REPRESENTATION ( 'Web Model 20464_20507', ( #171, #163 ), #18 ) ;
#165 = PERSON_AND_ORGANIZATION ( #22, #7 ) ;
#166 = AXIS2_PLACEMENT_3D ( 'NONE', #60, #94, #148 ) ;
#167 = EDGE_CURVE ( 'NONE', #161, #115, #32, .T. ) ;
#168 = DESIGN_CONTEXT ( 'detailed design', #103, 'design' ) ;
#169 = ORIENTED_EDGE ( 'NONE', *, *, #167, .F. ) ;
#170 = DIRECTION ( 'NONE',  ( 0.000000000000000000, 0.000000000000000000, 1.000000000000000000 ) ) ;
#171 = MANIFOLD_SOLID_BREP ( 'Boss-Extrude1', #11 ) ;
#172 = ADVANCED_FACE ( 'NONE', ( #21 ), #71, .T. ) ;
#173 = FACE_OUTER_BOUND ( 'NONE', #116, .T. ) ;
#174 = CARTESIAN_POINT ( 'NONE',  ( 0.000000000000000000, 0.000000000000000000, 2.000000000000000000 ) ) ;
#175 = AXIS2_PLACEMENT_3D ( 'NONE', #81, #46, #122 ) ;
ENDSEC;
END-ISO-10303-21;
