ISO-10303-21;
HEADER;
FILE_DESCRIPTION (( 'STEP AP203' ),
    '1' );
FILE_NAME ('Web Model 64397MX_15772.step',
    '2020-10-19T15:37:21',
    ( '' ),
    ( '' ),
    'SwSTEP 2.0',
    'SolidWorks 2018',
    '' );
FILE_SCHEMA (( 'CONFIG_CONTROL_DESIGN' ));
ENDSEC;

DATA;
#1 = COORDINATED_UNIVERSAL_TIME_OFFSET ( 5, 0, .BEHIND. ) ;
#2 = PLANE ( 'NONE',  #102 ) ;
#3 = VECTOR ( 'NONE', #138, 1000.000000000000000 ) ;
#4 = ORIENTED_EDGE ( 'NONE', *, *, #106, .F. ) ;
#5 = DATE_TIME_ROLE ( 'creation_date' ) ;
#6 = PRODUCT_DEFINITION_FORMATION_WITH_SPECIFIED_SOURCE ( 'ANY', '', #222, .NOT_KNOWN. ) ;
#7 = ADVANCED_FACE ( 'NONE', ( #174 ), #27, .F. ) ;
#8 = ORIENTED_EDGE ( 'NONE', *, *, #192, .T. ) ;
#9 = LOCAL_TIME ( 11, 37, 21.00000000000000000, #1 ) ;
#10 = AXIS2_PLACEMENT_3D ( 'NONE', #213, #86, #103 ) ;
#11 = LINE ( 'NONE', #148, #224 ) ;
#12 = CARTESIAN_POINT ( 'NONE',  ( 6.349999999999998757, -6.349999999999998757, 3.000000000000000000 ) ) ;
#13 = VECTOR ( 'NONE', #44, 1000.000000000000000 ) ;
#14 = CARTESIAN_POINT ( 'NONE',  ( 6.349999999999998757, -6.349999999999998757, 3.000000000000000000 ) ) ;
#15 = CC_DESIGN_PERSON_AND_ORGANIZATION_ASSIGNMENT ( #210, #56, ( #6 ) ) ;
#16 = CARTESIAN_POINT ( 'NONE',  ( -6.350000000000000533, -6.350000000000000533, -3.000000000000000000 ) ) ;
#17 = APPROVAL_ROLE ( '' ) ;
#18 = CC_DESIGN_DATE_AND_TIME_ASSIGNMENT ( #198, #5, ( #237 ) ) ;
#19 = CARTESIAN_POINT ( 'NONE',  ( 6.349999999999998757, -6.349999999999998757, 3.000000000000000000 ) ) ;
#20 = CARTESIAN_POINT ( 'NONE',  ( 6.349999999999998757, 6.350000000000000533, 3.000000000000000000 ) ) ;
#21 = VERTEX_POINT ( 'NONE', #125 ) ;
#22 = CC_DESIGN_APPROVAL ( #43, ( #23 ) ) ;
#23 = SECURITY_CLASSIFICATION ( '', '', #208 ) ;
#24 = DIRECTION ( 'NONE',  ( -0.0000000000000000000, -0.0000000000000000000, -1.000000000000000000 ) ) ;
#25 = LINE ( 'NONE', #130, #97 ) ;
#26 = VERTEX_POINT ( 'NONE', #163 ) ;
#27 = PLANE ( 'NONE',  #85 ) ;
#28 = DIRECTION ( 'NONE',  ( -0.0000000000000000000, -1.000000000000000000, -0.0000000000000000000 ) ) ;
#29 = ORIENTED_EDGE ( 'NONE', *, *, #145, .T. ) ;
#30 = DIRECTION ( 'NONE',  ( 0.0000000000000000000, 0.0000000000000000000, 1.000000000000000000 ) ) ;
#31 = CC_DESIGN_DATE_AND_TIME_ASSIGNMENT ( #178, #95, ( #23 ) ) ;
#32 = PLANE ( 'NONE',  #60 ) ;
#33 = DATE_AND_TIME ( #45, #51 ) ;
#34 = MANIFOLD_SOLID_BREP ( 'Boss-Extrude1', #142 ) ;
#35 =( GEOMETRIC_REPRESENTATION_CONTEXT ( 3 ) GLOBAL_UNCERTAINTY_ASSIGNED_CONTEXT ( ( #153 ) ) GLOBAL_UNIT_ASSIGNED_CONTEXT ( ( #53, #69, #66 ) ) REPRESENTATION_CONTEXT ( 'NONE', 'WORKASPACE' ) );
#36 = VECTOR ( 'NONE', #28, 1000.000000000000000 ) ;
#37 = VERTEX_POINT ( 'NONE', #46 ) ;
#38 = APPROVAL_ROLE ( '' ) ;
#39 = CC_DESIGN_SECURITY_CLASSIFICATION ( #23, ( #6 ) ) ;
#40 = FACE_OUTER_BOUND ( 'NONE', #112, .T. ) ;
#41 = APPROVAL_PERSON_ORGANIZATION ( #146, #71, #135 ) ;
#42 = ORIENTED_EDGE ( 'NONE', *, *, #215, .F. ) ;
#43 = APPROVAL ( #115, 'UNSPECIFIED' ) ;
#44 = DIRECTION ( 'NONE',  ( -1.000000000000000000, -1.365923996832131609E-16, 0.0000000000000000000 ) ) ;
#45 = CALENDAR_DATE ( 2020, 19, 10 ) ;
#46 = CARTESIAN_POINT ( 'NONE',  ( 6.349999999999998757, 6.350000000000000533, 3.000000000000000000 ) ) ;
#47 = DIRECTION ( 'NONE',  ( -1.000000000000000000, 0.0000000000000000000, 0.0000000000000000000 ) ) ;
#48 = ORIENTED_EDGE ( 'NONE', *, *, #161, .T. ) ;
#49 = DIRECTION ( 'NONE',  ( 1.000000000000000000, 1.365923996832131609E-16, -0.0000000000000000000 ) ) ;
#50 = CARTESIAN_POINT ( 'NONE',  ( -6.350000000000000533, -6.350000000000000533, 3.000000000000000000 ) ) ;
#51 = LOCAL_TIME ( 11, 37, 21.00000000000000000, #186 ) ;
#52 = PLANE ( 'NONE',  #199 ) ;
#53 =( LENGTH_UNIT ( ) NAMED_UNIT ( * ) SI_UNIT ( .MILLI., .METRE. ) );
#54 = APPLICATION_PROTOCOL_DEFINITION ( 'international standard', 'config_control_design', 1994, #152 ) ;
#55 = DIRECTION ( 'NONE',  ( -0.0000000000000000000, -0.0000000000000000000, -1.000000000000000000 ) ) ;
#56 = PERSON_AND_ORGANIZATION_ROLE ( 'design_supplier' ) ;
#57 = CC_DESIGN_APPROVAL ( #231, ( #237 ) ) ;
#58 = EDGE_LOOP ( 'NONE', ( #42, #88, #230, #4 ) ) ;
#59 = DATE_AND_TIME ( #185, #232 ) ;
#60 = AXIS2_PLACEMENT_3D ( 'NONE', #14, #201, #216 ) ;
#61 = CARTESIAN_POINT ( 'NONE',  ( 6.349999999999998757, -6.349999999999998757, -3.000000000000000000 ) ) ;
#62 = ORIENTED_EDGE ( 'NONE', *, *, #192, .F. ) ;
#63 = CARTESIAN_POINT ( 'NONE',  ( 6.349999999999998757, -6.349999999999998757, -3.000000000000000000 ) ) ;
#64 = ORIENTED_EDGE ( 'NONE', *, *, #221, .F. ) ;
#65 = ADVANCED_FACE ( 'NONE', ( #40 ), #190, .F. ) ;
#66 =( NAMED_UNIT ( * ) SI_UNIT ( $, .STERADIAN. ) SOLID_ANGLE_UNIT ( ) );
#67 = VECTOR ( 'NONE', #49, 1000.000000000000000 ) ;
#68 = ORIENTED_EDGE ( 'NONE', *, *, #143, .T. ) ;
#69 =( NAMED_UNIT ( * ) PLANE_ANGLE_UNIT ( ) SI_UNIT ( $, .RADIAN. ) );
#70 = MECHANICAL_CONTEXT ( 'NONE', #152, 'mechanical' ) ;
#71 = APPROVAL ( #72, 'UNSPECIFIED' ) ;
#72 = APPROVAL_STATUS ( 'not_yet_approved' ) ;
#73 = ORIENTED_EDGE ( 'NONE', *, *, #150, .T. ) ;
#74 = PERSON_AND_ORGANIZATION ( #109, #141 ) ;
#75 = DIRECTION ( 'NONE',  ( 0.0000000000000000000, -0.0000000000000000000, 1.000000000000000000 ) ) ;
#76 = CC_DESIGN_PERSON_AND_ORGANIZATION_ASSIGNMENT ( #173, #207, ( #222 ) ) ;
#77 = FACE_OUTER_BOUND ( 'NONE', #58, .T. ) ;
#78 = EDGE_LOOP ( 'NONE', ( #189, #81, #137, #8 ) ) ;
#79 = APPROVAL_DATE_TIME ( #59, #71 ) ;
#80 = PERSON_AND_ORGANIZATION ( #109, #141 ) ;
#81 = ORIENTED_EDGE ( 'NONE', *, *, #162, .T. ) ;
#82 = VECTOR ( 'NONE', #223, 1000.000000000000000 ) ;
#83 = ORIENTED_EDGE ( 'NONE', *, *, #215, .T. ) ;
#84 = COORDINATED_UNIVERSAL_TIME_OFFSET ( 5, 0, .BEHIND. ) ;
#85 = AXIS2_PLACEMENT_3D ( 'NONE', #12, #47, #30 ) ;
#86 = DIRECTION ( 'NONE',  ( 1.365923996832131609E-16, -1.000000000000000000, 0.0000000000000000000 ) ) ;
#87 = LINE ( 'NONE', #16, #36 ) ;
#88 = ORIENTED_EDGE ( 'NONE', *, *, #227, .F. ) ;
#89 = CARTESIAN_POINT ( 'NONE',  ( 6.349999999999998757, -6.349999999999998757, 3.000000000000000000 ) ) ;
#90 = DIRECTION ( 'NONE',  ( -0.0000000000000000000, -1.000000000000000000, -0.0000000000000000000 ) ) ;
#91 = AXIS2_PLACEMENT_3D ( 'NONE', #188, #170, #194 ) ;
#92 = ORIENTED_EDGE ( 'NONE', *, *, #106, .T. ) ;
#93 = LINE ( 'NONE', #89, #117 ) ;
#94 = SHAPE_DEFINITION_REPRESENTATION ( #220, #217 ) ;
#95 = DATE_TIME_ROLE ( 'classification_date' ) ;
#96 = DIRECTION ( 'NONE',  ( 1.000000000000000000, 0.0000000000000000000, -0.0000000000000000000 ) ) ;
#97 = VECTOR ( 'NONE', #105, 1000.000000000000000 ) ;
#98 = CALENDAR_DATE ( 2020, 19, 10 ) ;
#99 = DATE_AND_TIME ( #182, #134 ) ;
#100 = AXIS2_PLACEMENT_3D ( 'NONE', #228, #118, #140 ) ;
#101 = FACE_OUTER_BOUND ( 'NONE', #149, .T. ) ;
#102 = AXIS2_PLACEMENT_3D ( 'NONE', #203, #75, #96 ) ;
#103 = DIRECTION ( 'NONE',  ( 1.000000000000000000, 1.365923996832131609E-16, 0.0000000000000000000 ) ) ;
#104 = DIRECTION ( 'NONE',  ( -0.0000000000000000000, -0.0000000000000000000, -1.000000000000000000 ) ) ;
#105 = DIRECTION ( 'NONE',  ( -0.0000000000000000000, -0.0000000000000000000, -1.000000000000000000 ) ) ;
#106 = EDGE_CURVE ( 'NONE', #235, #116, #122, .T. ) ;
#107 = ORIENTED_EDGE ( 'NONE', *, *, #161, .F. ) ;
#108 = PERSON_AND_ORGANIZATION ( #109, #141 ) ;
#109 = PERSON ( 'UNSPECIFIED', 'UNSPECIFIED', 'UNSPECIFIED', ('UNSPECIFIED'), ('UNSPECIFIED'), ('UNSPECIFIED') ) ;
#110 = PRODUCT_RELATED_PRODUCT_CATEGORY ( 'detail', '', ( #222 ) ) ;
#111 = FACE_OUTER_BOUND ( 'NONE', #78, .T. ) ;
#112 = EDGE_LOOP ( 'NONE', ( #183, #166, #62, #171 ) ) ;
#113 = APPROVAL_STATUS ( 'not_yet_approved' ) ;
#114 = CC_DESIGN_APPROVAL ( #71, ( #6 ) ) ;
#115 = APPROVAL_STATUS ( 'not_yet_approved' ) ;
#116 = VERTEX_POINT ( 'NONE', #61 ) ;
#117 = VECTOR ( 'NONE', #187, 1000.000000000000000 ) ;
#118 = DIRECTION ( 'NONE',  ( 0.0000000000000000000, -0.0000000000000000000, 1.000000000000000000 ) ) ;
#119 = ORIENTED_EDGE ( 'NONE', *, *, #162, .F. ) ;
#120 = EDGE_CURVE ( 'NONE', #128, #37, #93, .T. ) ;
#121 = VECTOR ( 'NONE', #90, 1000.000000000000000 ) ;
#122 = LINE ( 'NONE', #63, #67 ) ;
#123 = ORIENTED_EDGE ( 'NONE', *, *, #145, .F. ) ;
#124 = LOCAL_TIME ( 11, 37, 21.00000000000000000, #144 ) ;
#125 = CARTESIAN_POINT ( 'NONE',  ( -6.350000000000000533, -6.350000000000000533, 3.000000000000000000 ) ) ;
#126 = CARTESIAN_POINT ( 'NONE',  ( -6.350000000000000533, 6.349999999999998757, -3.000000000000000000 ) ) ;
#127 = CC_DESIGN_PERSON_AND_ORGANIZATION_ASSIGNMENT ( #212, #154, ( #6 ) ) ;
#128 = VERTEX_POINT ( 'NONE', #164 ) ;
#129 = DESIGN_CONTEXT ( 'detailed design', #139, 'design' ) ;
#130 = CARTESIAN_POINT ( 'NONE',  ( 6.349999999999998757, 6.350000000000000533, 3.000000000000000000 ) ) ;
#131 = EDGE_LOOP ( 'NONE', ( #73, #133, #219, #48 ) ) ;
#132 = FACE_OUTER_BOUND ( 'NONE', #200, .T. ) ;
#133 = ORIENTED_EDGE ( 'NONE', *, *, #209, .F. ) ;
#134 = LOCAL_TIME ( 11, 37, 21.00000000000000000, #84 ) ;
#135 = APPROVAL_ROLE ( '' ) ;
#136 = LINE ( 'NONE', #233, #218 ) ;
#137 = ORIENTED_EDGE ( 'NONE', *, *, #120, .T. ) ;
#138 = DIRECTION ( 'NONE',  ( 1.000000000000000000, 1.365923996832131609E-16, -0.0000000000000000000 ) ) ;
#139 = APPLICATION_CONTEXT ( 'configuration controlled 3d designs of mechanical parts and assemblies' ) ;
#140 = DIRECTION ( 'NONE',  ( 1.000000000000000000, 0.0000000000000000000, -0.0000000000000000000 ) ) ;
#141 = ORGANIZATION ( 'UNSPECIFIED', 'UNSPECIFIED', '' ) ;
#142 = CLOSED_SHELL ( 'NONE', ( #159, #229, #7, #65, #180, #157 ) ) ;
#143 = EDGE_CURVE ( 'NONE', #177, #226, #11, .T. ) ;
#144 = COORDINATED_UNIVERSAL_TIME_OFFSET ( 5, 0, .BEHIND. ) ;
#145 = EDGE_CURVE ( 'NONE', #21, #235, #136, .T. ) ;
#146 = PERSON_AND_ORGANIZATION ( #109, #141 ) ;
#147 = APPROVAL_PERSON_ORGANIZATION ( #80, #231, #17 ) ;
#148 = CARTESIAN_POINT ( 'NONE',  ( -6.350000000000000533, 6.349999999999998757, 3.000000000000000000 ) ) ;
#149 = EDGE_LOOP ( 'NONE', ( #92, #107, #119, #29 ) ) ;
#150 = EDGE_CURVE ( 'NONE', #116, #26, #204, .T. ) ;
#151 = APPROVAL_DATE_TIME ( #33, #231 ) ;
#152 = APPLICATION_CONTEXT ( 'configuration controlled 3d designs of mechanical parts and assemblies' ) ;
#153 = UNCERTAINTY_MEASURE_WITH_UNIT (LENGTH_MEASURE( 1.000000000000000082E-05 ), #53, 'distance_accuracy_value', 'NONE');
#154 = PERSON_AND_ORGANIZATION_ROLE ( 'creator' ) ;
#155 = CARTESIAN_POINT ( 'NONE',  ( -6.350000000000000533, 6.349999999999998757, 3.000000000000000000 ) ) ;
#156 = PERSON_AND_ORGANIZATION_ROLE ( 'classification_officer' ) ;
#157 = ADVANCED_FACE ( 'NONE', ( #77 ), #2, .F. ) ;
#158 = LINE ( 'NONE', #236, #195 ) ;
#159 = ADVANCED_FACE ( 'NONE', ( #132 ), #52, .F. ) ;
#160 = CC_DESIGN_PERSON_AND_ORGANIZATION_ASSIGNMENT ( #214, #176, ( #237 ) ) ;
#161 = EDGE_CURVE ( 'NONE', #128, #116, #211, .T. ) ;
#162 = EDGE_CURVE ( 'NONE', #21, #128, #165, .T. ) ;
#163 = CARTESIAN_POINT ( 'NONE',  ( 6.349999999999998757, 6.350000000000000533, -3.000000000000000000 ) ) ;
#164 = CARTESIAN_POINT ( 'NONE',  ( 6.349999999999998757, -6.349999999999998757, 3.000000000000000000 ) ) ;
#165 = LINE ( 'NONE', #234, #3 ) ;
#166 = ORIENTED_EDGE ( 'NONE', *, *, #143, .F. ) ;
#167 = COORDINATED_UNIVERSAL_TIME_OFFSET ( 5, 0, .BEHIND. ) ;
#168 = CALENDAR_DATE ( 2020, 19, 10 ) ;
#169 = CC_DESIGN_PERSON_AND_ORGANIZATION_ASSIGNMENT ( #74, #156, ( #23 ) ) ;
#170 = DIRECTION ( 'NONE',  ( 0.0000000000000000000, 0.0000000000000000000, 1.000000000000000000 ) ) ;
#171 = ORIENTED_EDGE ( 'NONE', *, *, #209, .T. ) ;
#172 = DIRECTION ( 'NONE',  ( -1.000000000000000000, -1.365923996832131609E-16, 0.0000000000000000000 ) ) ;
#173 = PERSON_AND_ORGANIZATION ( #109, #141 ) ;
#174 = FACE_OUTER_BOUND ( 'NONE', #131, .T. ) ;
#175 = DIRECTION ( 'NONE',  ( 0.0000000000000000000, 0.0000000000000000000, -1.000000000000000000 ) ) ;
#176 = PERSON_AND_ORGANIZATION_ROLE ( 'creator' ) ;
#177 = VERTEX_POINT ( 'NONE', #155 ) ;
#178 = DATE_AND_TIME ( #168, #124 ) ;
#179 = CARTESIAN_POINT ( 'NONE',  ( -6.350000000000000533, -6.350000000000000533, 3.000000000000000000 ) ) ;
#180 = ADVANCED_FACE ( 'NONE', ( #111 ), #206, .T. ) ;
#181 = LINE ( 'NONE', #50, #121 ) ;
#182 = CALENDAR_DATE ( 2020, 19, 10 ) ;
#183 = ORIENTED_EDGE ( 'NONE', *, *, #227, .T. ) ;
#184 = LINE ( 'NONE', #20, #13 ) ;
#185 = CALENDAR_DATE ( 2020, 19, 10 ) ;
#186 = COORDINATED_UNIVERSAL_TIME_OFFSET ( 5, 0, .BEHIND. ) ;
#187 = DIRECTION ( 'NONE',  ( 0.0000000000000000000, 1.000000000000000000, 0.0000000000000000000 ) ) ;
#188 = CARTESIAN_POINT ( 'NONE',  ( 0.0000000000000000000, 0.0000000000000000000, 0.0000000000000000000 ) ) ;
#189 = ORIENTED_EDGE ( 'NONE', *, *, #221, .T. ) ;
#190 = PLANE ( 'NONE',  #10 ) ;
#191 = APPROVAL_DATE_TIME ( #99, #43 ) ;
#192 = EDGE_CURVE ( 'NONE', #37, #177, #184, .T. ) ;
#193 = CARTESIAN_POINT ( 'NONE',  ( 6.349999999999998757, -6.349999999999998757, -3.000000000000000000 ) ) ;
#194 = DIRECTION ( 'NONE',  ( 1.000000000000000000, 0.0000000000000000000, 0.0000000000000000000 ) ) ;
#195 = VECTOR ( 'NONE', #172, 1000.000000000000000 ) ;
#196 = APPLICATION_PROTOCOL_DEFINITION ( 'international standard', 'config_control_design', 1994, #139 ) ;
#197 = DIRECTION ( 'NONE',  ( 1.000000000000000000, 0.0000000000000000000, 0.0000000000000000000 ) ) ;
#198 = DATE_AND_TIME ( #98, #9 ) ;
#199 = AXIS2_PLACEMENT_3D ( 'NONE', #179, #197, #175 ) ;
#200 = EDGE_LOOP ( 'NONE', ( #83, #123, #64, #68 ) ) ;
#201 = DIRECTION ( 'NONE',  ( -1.365923996832131609E-16, 1.000000000000000000, 0.0000000000000000000 ) ) ;
#202 = CARTESIAN_POINT ( 'NONE',  ( -6.350000000000000533, -6.350000000000000533, -3.000000000000000000 ) ) ;
#203 = CARTESIAN_POINT ( 'NONE',  ( 0.0000000000000000000, 0.0000000000000000000, -3.000000000000000000 ) ) ;
#204 = LINE ( 'NONE', #193, #82 ) ;
#205 = APPROVAL_PERSON_ORGANIZATION ( #108, #43, #38 ) ;
#206 = PLANE ( 'NONE',  #100 ) ;
#207 = PERSON_AND_ORGANIZATION_ROLE ( 'design_owner' ) ;
#208 = SECURITY_CLASSIFICATION_LEVEL ( 'unclassified' ) ;
#209 = EDGE_CURVE ( 'NONE', #37, #26, #25, .T. ) ;
#210 = PERSON_AND_ORGANIZATION ( #109, #141 ) ;
#211 = LINE ( 'NONE', #19, #225 ) ;
#212 = PERSON_AND_ORGANIZATION ( #109, #141 ) ;
#213 = CARTESIAN_POINT ( 'NONE',  ( 6.349999999999998757, 6.350000000000000533, 3.000000000000000000 ) ) ;
#214 = PERSON_AND_ORGANIZATION ( #109, #141 ) ;
#215 = EDGE_CURVE ( 'NONE', #226, #235, #87, .T. ) ;
#216 = DIRECTION ( 'NONE',  ( -1.000000000000000000, -1.365923996832131609E-16, 0.0000000000000000000 ) ) ;
#217 = ADVANCED_BREP_SHAPE_REPRESENTATION ( 'Web Model 64397MX_15772', ( #34, #91 ), #35 ) ;
#218 = VECTOR ( 'NONE', #104, 1000.000000000000000 ) ;
#219 = ORIENTED_EDGE ( 'NONE', *, *, #120, .F. ) ;
#220 = PRODUCT_DEFINITION_SHAPE ( 'NONE', 'NONE',  #237 ) ;
#221 = EDGE_CURVE ( 'NONE', #177, #21, #181, .T. ) ;
#222 = PRODUCT ( 'Web Model 64397MX_15772', 'Web Model 64397MX_15772', '', ( #70 ) ) ;
#223 = DIRECTION ( 'NONE',  ( 0.0000000000000000000, 1.000000000000000000, 0.0000000000000000000 ) ) ;
#224 = VECTOR ( 'NONE', #24, 1000.000000000000000 ) ;
#225 = VECTOR ( 'NONE', #55, 1000.000000000000000 ) ;
#226 = VERTEX_POINT ( 'NONE', #126 ) ;
#227 = EDGE_CURVE ( 'NONE', #26, #226, #158, .T. ) ;
#228 = CARTESIAN_POINT ( 'NONE',  ( 0.0000000000000000000, 0.0000000000000000000, 3.000000000000000000 ) ) ;
#229 = ADVANCED_FACE ( 'NONE', ( #101 ), #32, .F. ) ;
#230 = ORIENTED_EDGE ( 'NONE', *, *, #150, .F. ) ;
#231 = APPROVAL ( #113, 'UNSPECIFIED' ) ;
#232 = LOCAL_TIME ( 11, 37, 21.00000000000000000, #167 ) ;
#233 = CARTESIAN_POINT ( 'NONE',  ( -6.350000000000000533, -6.350000000000000533, 3.000000000000000000 ) ) ;
#234 = CARTESIAN_POINT ( 'NONE',  ( 6.349999999999998757, -6.349999999999998757, 3.000000000000000000 ) ) ;
#235 = VERTEX_POINT ( 'NONE', #202 ) ;
#236 = CARTESIAN_POINT ( 'NONE',  ( 6.349999999999998757, 6.350000000000000533, -3.000000000000000000 ) ) ;
#237 = PRODUCT_DEFINITION ( 'UNKNOWN', '', #6, #129 ) ;
ENDSEC;
END-ISO-10303-21;
