ISO-10303-21;
HEADER;
FILE_DESCRIPTION (( 'STEP AP203' ),
    '1' );
FILE_NAME ('Web Model 48427_55262.step',
    '2018-03-12T20:54:05',
    ( '' ),
    ( '' ),
    'SwSTEP 2.0',
    'SolidWorks 2016',
    '' );
FILE_SCHEMA (( 'CONFIG_CONTROL_DESIGN' ));
ENDSEC;

DATA;
#1 = LINE ( 'NONE', #54, #50 ) ;
#2 = ORIENTED_EDGE ( 'NONE', *, *, #78, .T. ) ;
#3 = APPROVAL_PERSON_ORGANIZATION ( #45, #223, #116 ) ;
#4 = DIRECTION ( 'NONE',  ( 0.0000000000000000000, -0.0000000000000000000, 1.000000000000000000 ) ) ;
#5 = ORIENTED_EDGE ( 'NONE', *, *, #20, .T. ) ;
#6 = DIRECTION ( 'NONE',  ( 0.0000000000000000000, 0.0000000000000000000, -1.000000000000000000 ) ) ;
#7 = CARTESIAN_POINT ( 'NONE',  ( 4.750000000000000000, 14.99999999999999800, -15.00000000000000000 ) ) ;
#8 = VECTOR ( 'NONE', #212, 1000.000000000000000 ) ;
#9 = ADVANCED_FACE ( 'NONE', ( #18 ), #187, .F. ) ;
#10 =( NAMED_UNIT ( * ) SI_UNIT ( $, .STERADIAN. ) SOLID_ANGLE_UNIT ( ) );
#11 = CARTESIAN_POINT ( 'NONE',  ( -4.750000000000000000, -15.00000000000000200, 15.00000000000000500 ) ) ;
#12 = DIRECTION ( 'NONE',  ( 1.000000000000000000, 0.0000000000000000000, 0.0000000000000000000 ) ) ;
#13 =( LENGTH_UNIT ( ) NAMED_UNIT ( * ) SI_UNIT ( .MILLI., .METRE. ) );
#14 = AXIS2_PLACEMENT_3D ( 'NONE', #166, #220, #6 ) ;
#15 = PERSON_AND_ORGANIZATION ( #213, #211 ) ;
#16 = PLANE ( 'NONE',  #40 ) ;
#17 = VECTOR ( 'NONE', #52, 1000.000000000000000 ) ;
#18 = FACE_OUTER_BOUND ( 'NONE', #141, .T. ) ;
#19 = PRODUCT_DEFINITION ( 'UNKNOWN', '', #85, #196 ) ;
#20 = EDGE_CURVE ( 'NONE', #160, #198, #226, .T. ) ;
#21 = ORIENTED_EDGE ( 'NONE', *, *, #123, .T. ) ;
#22 = ORIENTED_EDGE ( 'NONE', *, *, #84, .F. ) ;
#23 =( GEOMETRIC_REPRESENTATION_CONTEXT ( 3 ) GLOBAL_UNCERTAINTY_ASSIGNED_CONTEXT ( ( #204 ) ) GLOBAL_UNIT_ASSIGNED_CONTEXT ( ( #13, #210, #10 ) ) REPRESENTATION_CONTEXT ( 'NONE', 'WORKASPACE' ) );
#24 = PERSON_AND_ORGANIZATION ( #213, #211 ) ;
#25 = ORIENTED_EDGE ( 'NONE', *, *, #148, .F. ) ;
#26 = EDGE_CURVE ( 'NONE', #217, #229, #65, .T. ) ;
#27 = ADVANCED_FACE ( 'NONE', ( #174 ), #35, .F. ) ;
#28 = PERSON_AND_ORGANIZATION ( #213, #211 ) ;
#29 = EDGE_CURVE ( 'NONE', #69, #160, #233, .T. ) ;
#30 = APPROVAL_ROLE ( '' ) ;
#31 = VECTOR ( 'NONE', #37, 1000.000000000000000 ) ;
#32 = CARTESIAN_POINT ( 'NONE',  ( 4.750000000000000000, -15.00000000000000200, 15.00000000000000500 ) ) ;
#33 = ORIENTED_EDGE ( 'NONE', *, *, #78, .F. ) ;
#34 = APPROVAL_STATUS ( 'not_yet_approved' ) ;
#35 = PLANE ( 'NONE',  #92 ) ;
#36 = APPROVAL_DATE_TIME ( #38, #223 ) ;
#37 = DIRECTION ( 'NONE',  ( -0.0000000000000000000, -0.0000000000000000000, 1.000000000000000000 ) ) ;
#38 = DATE_AND_TIME ( #181, #122 ) ;
#39 = VERTEX_POINT ( 'NONE', #189 ) ;
#40 = AXIS2_PLACEMENT_3D ( 'NONE', #115, #118, #209 ) ;
#41 = PERSON_AND_ORGANIZATION ( #213, #211 ) ;
#42 = LOCAL_TIME ( 16, 54, 5.000000000000000000, #214 ) ;
#43 = EDGE_LOOP ( 'NONE', ( #170, #101, #51, #33 ) ) ;
#44 = AXIS2_PLACEMENT_3D ( 'NONE', #154, #62, #180 ) ;
#45 = PERSON_AND_ORGANIZATION ( #213, #211 ) ;
#46 = ORIENTED_EDGE ( 'NONE', *, *, #111, .T. ) ;
#47 = DATE_AND_TIME ( #119, #86 ) ;
#48 = ADVANCED_FACE ( 'NONE', ( #73 ), #163, .F. ) ;
#49 = EDGE_LOOP ( 'NONE', ( #21, #22, #59, #179 ) ) ;
#50 = VECTOR ( 'NONE', #222, 1000.000000000000000 ) ;
#51 = ORIENTED_EDGE ( 'NONE', *, *, #131, .F. ) ;
#52 = DIRECTION ( 'NONE',  ( -0.0000000000000000000, 1.000000000000000000, 1.734723475976807100E-016 ) ) ;
#53 = APPROVAL_STATUS ( 'not_yet_approved' ) ;
#54 = CARTESIAN_POINT ( 'NONE',  ( 4.750000000000000000, 14.99999999999999800, 15.00000000000000000 ) ) ;
#55 = PERSON_AND_ORGANIZATION_ROLE ( 'classification_officer' ) ;
#56 = CARTESIAN_POINT ( 'NONE',  ( 4.750000000000000000, 14.99999999999999800, 15.00000000000000000 ) ) ;
#57 = AXIS2_PLACEMENT_3D ( 'NONE', #90, #193, #75 ) ;
#58 = LINE ( 'NONE', #96, #206 ) ;
#59 = ORIENTED_EDGE ( 'NONE', *, *, #71, .F. ) ;
#60 = DIRECTION ( 'NONE',  ( -1.000000000000000000, -0.0000000000000000000, -0.0000000000000000000 ) ) ;
#61 = CARTESIAN_POINT ( 'NONE',  ( -4.750000000000000000, 14.99999999999999800, 15.00000000000000000 ) ) ;
#62 = DIRECTION ( 'NONE',  ( 0.0000000000000000000, -1.734723475976807100E-016, -1.000000000000000000 ) ) ;
#63 = COORDINATED_UNIVERSAL_TIME_OFFSET ( 5, 0, .BEHIND. ) ;
#64 = CC_DESIGN_PERSON_AND_ORGANIZATION_ASSIGNMENT ( #159, #149, ( #19 ) ) ;
#65 = LINE ( 'NONE', #7, #17 ) ;
#66 = DATE_AND_TIME ( #183, #81 ) ;
#67 = FACE_OUTER_BOUND ( 'NONE', #129, .T. ) ;
#68 = CC_DESIGN_DATE_AND_TIME_ASSIGNMENT ( #216, #175, ( #19 ) ) ;
#69 = VERTEX_POINT ( 'NONE', #56 ) ;
#70 = ORIENTED_EDGE ( 'NONE', *, *, #236, .T. ) ;
#71 = EDGE_CURVE ( 'NONE', #229, #69, #205, .T. ) ;
#72 = VECTOR ( 'NONE', #227, 1000.000000000000000 ) ;
#73 = FACE_OUTER_BOUND ( 'NONE', #49, .T. ) ;
#74 = APPROVAL ( #34, 'UNSPECIFIED' ) ;
#75 = DIRECTION ( 'NONE',  ( 0.0000000000000000000, -1.000000000000000000, -1.734723475976807100E-016 ) ) ;
#76 = ADVANCED_FACE ( 'NONE', ( #104 ), #110, .F. ) ;
#77 = CARTESIAN_POINT ( 'NONE',  ( 4.750000000000000000, 14.99999999999999800, 15.00000000000000000 ) ) ;
#78 = EDGE_CURVE ( 'NONE', #198, #237, #218, .T. ) ;
#79 = DIRECTION ( 'NONE',  ( 0.0000000000000000000, 0.0000000000000000000, -1.000000000000000000 ) ) ;
#80 = CARTESIAN_POINT ( 'NONE',  ( 0.0000000000000000000, 0.0000000000000000000, 0.0000000000000000000 ) ) ;
#81 = LOCAL_TIME ( 16, 54, 5.000000000000000000, #191 ) ;
#82 = CC_DESIGN_PERSON_AND_ORGANIZATION_ASSIGNMENT ( #99, #114, ( #85 ) ) ;
#83 = DATE_AND_TIME ( #135, #186 ) ;
#84 = EDGE_CURVE ( 'NONE', #69, #146, #1, .T. ) ;
#85 = PRODUCT_DEFINITION_FORMATION_WITH_SPECIFIED_SOURCE ( 'ANY', '', #182, .NOT_KNOWN. ) ;
#86 = LOCAL_TIME ( 16, 54, 5.000000000000000000, #161 ) ;
#87 = VECTOR ( 'NONE', #107, 1000.000000000000000 ) ;
#88 = DIRECTION ( 'NONE',  ( 0.0000000000000000000, -0.0000000000000000000, -1.000000000000000000 ) ) ;
#89 = ORIENTED_EDGE ( 'NONE', *, *, #148, .T. ) ;
#90 = CARTESIAN_POINT ( 'NONE',  ( 4.750000000000000000, 14.99999999999999800, -15.00000000000000000 ) ) ;
#91 = DIRECTION ( 'NONE',  ( 0.0000000000000000000, 0.0000000000000000000, -1.000000000000000000 ) ) ;
#92 = AXIS2_PLACEMENT_3D ( 'NONE', #32, #177, #4 ) ;
#93 = VECTOR ( 'NONE', #188, 1000.000000000000000 ) ;
#94 = CARTESIAN_POINT ( 'NONE',  ( 4.750000000000000000, 14.99999999999999800, -15.00000000000000000 ) ) ;
#95 = APPROVAL_ROLE ( '' ) ;
#96 = CARTESIAN_POINT ( 'NONE',  ( 4.750000000000000000, -15.00000000000000200, -15.00000000000000500 ) ) ;
#97 = CARTESIAN_POINT ( 'NONE',  ( 4.750000000000000000, -15.00000000000000200, -15.00000000000000500 ) ) ;
#98 = CC_DESIGN_PERSON_AND_ORGANIZATION_ASSIGNMENT ( #15, #55, ( #178 ) ) ;
#99 = PERSON_AND_ORGANIZATION ( #213, #211 ) ;
#100 = CC_DESIGN_PERSON_AND_ORGANIZATION_ASSIGNMENT ( #41, #164, ( #85 ) ) ;
#101 = ORIENTED_EDGE ( 'NONE', *, *, #123, .F. ) ;
#102 = FACE_OUTER_BOUND ( 'NONE', #158, .T. ) ;
#103 = CC_DESIGN_APPROVAL ( #223, ( #19 ) ) ;
#104 = FACE_OUTER_BOUND ( 'NONE', #43, .T. ) ;
#105 = ORIENTED_EDGE ( 'NONE', *, *, #131, .T. ) ;
#106 = ORIENTED_EDGE ( 'NONE', *, *, #84, .T. ) ;
#107 = DIRECTION ( 'NONE',  ( -1.000000000000000000, -0.0000000000000000000, -0.0000000000000000000 ) ) ;
#108 = CALENDAR_DATE ( 2018, 12, 3 ) ;
#109 = APPROVAL ( #53, 'UNSPECIFIED' ) ;
#110 = PLANE ( 'NONE',  #14 ) ;
#111 = EDGE_CURVE ( 'NONE', #160, #217, #171, .T. ) ;
#112 = DIRECTION ( 'NONE',  ( 0.0000000000000000000, -1.000000000000000000, 0.0000000000000000000 ) ) ;
#113 = ADVANCED_FACE ( 'NONE', ( #67 ), #224, .F. ) ;
#114 = PERSON_AND_ORGANIZATION_ROLE ( 'design_supplier' ) ;
#115 = CARTESIAN_POINT ( 'NONE',  ( 4.750000000000000000, 0.0000000000000000000, 0.0000000000000000000 ) ) ;
#116 = APPROVAL_ROLE ( '' ) ;
#117 = DIRECTION ( 'NONE',  ( 0.0000000000000000000, 0.0000000000000000000, 1.000000000000000000 ) ) ;
#118 = DIRECTION ( 'NONE',  ( 1.000000000000000000, 0.0000000000000000000, 0.0000000000000000000 ) ) ;
#119 = CALENDAR_DATE ( 2018, 12, 3 ) ;
#120 = APPROVAL_PERSON_ORGANIZATION ( #173, #74, #30 ) ;
#121 = CC_DESIGN_SECURITY_CLASSIFICATION ( #178, ( #85 ) ) ;
#122 = LOCAL_TIME ( 16, 54, 5.000000000000000000, #136 ) ;
#123 = EDGE_CURVE ( 'NONE', #39, #146, #208, .T. ) ;
#124 = CLOSED_SHELL ( 'NONE', ( #113, #27, #9, #48, #176, #76 ) ) ;
#125 = CC_DESIGN_APPROVAL ( #109, ( #178 ) ) ;
#126 = LINE ( 'NONE', #197, #200 ) ;
#127 = APPROVAL_DATE_TIME ( #66, #109 ) ;
#128 = VECTOR ( 'NONE', #91, 1000.000000000000000 ) ;
#129 = EDGE_LOOP ( 'NONE', ( #70, #152, #234, #106 ) ) ;
#130 = DIRECTION ( 'NONE',  ( -0.0000000000000000000, -0.0000000000000000000, 1.000000000000000000 ) ) ;
#131 = EDGE_CURVE ( 'NONE', #237, #39, #138, .T. ) ;
#132 = CARTESIAN_POINT ( 'NONE',  ( -4.750000000000000000, 14.99999999999999800, 15.00000000000000000 ) ) ;
#133 = PERSON_AND_ORGANIZATION_ROLE ( 'design_owner' ) ;
#134 = CARTESIAN_POINT ( 'NONE',  ( -4.750000000000000000, 14.99999999999999800, 15.00000000000000000 ) ) ;
#135 = CALENDAR_DATE ( 2018, 12, 3 ) ;
#136 = COORDINATED_UNIVERSAL_TIME_OFFSET ( 5, 0, .BEHIND. ) ;
#137 = ORIENTED_EDGE ( 'NONE', *, *, #29, .T. ) ;
#138 = LINE ( 'NONE', #153, #8 ) ;
#139 = EDGE_CURVE ( 'NONE', #229, #39, #126, .T. ) ;
#140 = APPROVAL_PERSON_ORGANIZATION ( #28, #109, #95 ) ;
#141 = EDGE_LOOP ( 'NONE', ( #105, #215, #157, #89 ) ) ;
#142 = CARTESIAN_POINT ( 'NONE',  ( 4.750000000000000000, 14.99999999999999800, 15.00000000000000000 ) ) ;
#143 = SHAPE_DEFINITION_REPRESENTATION ( #203, #168 ) ;
#144 = PRODUCT_RELATED_PRODUCT_CATEGORY ( 'detail', '', ( #182 ) ) ;
#145 = VECTOR ( 'NONE', #79, 1000.000000000000000 ) ;
#146 = VERTEX_POINT ( 'NONE', #132 ) ;
#147 = APPLICATION_CONTEXT ( 'configuration controlled 3d designs of mechanical parts and assemblies' ) ;
#148 = EDGE_CURVE ( 'NONE', #217, #237, #58, .T. ) ;
#149 = PERSON_AND_ORGANIZATION_ROLE ( 'creator' ) ;
#150 = MECHANICAL_CONTEXT ( 'NONE', #151, 'mechanical' ) ;
#151 = APPLICATION_CONTEXT ( 'configuration controlled 3d designs of mechanical parts and assemblies' ) ;
#152 = ORIENTED_EDGE ( 'NONE', *, *, #20, .F. ) ;
#153 = CARTESIAN_POINT ( 'NONE',  ( -4.750000000000000000, 14.99999999999999800, -15.00000000000000000 ) ) ;
#154 = CARTESIAN_POINT ( 'NONE',  ( 4.750000000000000000, 14.99999999999999800, 15.00000000000000000 ) ) ;
#155 = APPROVAL_DATE_TIME ( #83, #74 ) ;
#156 = VECTOR ( 'NONE', #130, 1000.000000000000000 ) ;
#157 = ORIENTED_EDGE ( 'NONE', *, *, #26, .F. ) ;
#158 = EDGE_LOOP ( 'NONE', ( #137, #46, #228, #184 ) ) ;
#159 = PERSON_AND_ORGANIZATION ( #213, #211 ) ;
#160 = VERTEX_POINT ( 'NONE', #232 ) ;
#161 = COORDINATED_UNIVERSAL_TIME_OFFSET ( 5, 0, .BEHIND. ) ;
#162 = CARTESIAN_POINT ( 'NONE',  ( 4.750000000000000000, -15.00000000000000200, 15.00000000000000500 ) ) ;
#163 = PLANE ( 'NONE',  #199 ) ;
#164 = PERSON_AND_ORGANIZATION_ROLE ( 'creator' ) ;
#165 = ORIENTED_EDGE ( 'NONE', *, *, #111, .F. ) ;
#166 = CARTESIAN_POINT ( 'NONE',  ( -4.750000000000000000, 0.0000000000000000000, 0.0000000000000000000 ) ) ;
#167 = CARTESIAN_POINT ( 'NONE',  ( -4.750000000000000000, -15.00000000000000200, -15.00000000000000500 ) ) ;
#168 = ADVANCED_BREP_SHAPE_REPRESENTATION ( 'Web Model 48427_55262', ( #202, #169 ), #23 ) ;
#169 = AXIS2_PLACEMENT_3D ( 'NONE', #80, #117, #12 ) ;
#170 = ORIENTED_EDGE ( 'NONE', *, *, #236, .F. ) ;
#171 = LINE ( 'NONE', #190, #128 ) ;
#172 = CARTESIAN_POINT ( 'NONE',  ( 4.750000000000000000, 14.99999999999999800, 15.00000000000000000 ) ) ;
#173 = PERSON_AND_ORGANIZATION ( #213, #211 ) ;
#174 = FACE_OUTER_BOUND ( 'NONE', #219, .T. ) ;
#175 = DATE_TIME_ROLE ( 'creation_date' ) ;
#176 = ADVANCED_FACE ( 'NONE', ( #102 ), #16, .T. ) ;
#177 = DIRECTION ( 'NONE',  ( -0.0000000000000000000, 1.000000000000000000, 0.0000000000000000000 ) ) ;
#178 = SECURITY_CLASSIFICATION ( '', '', #230 ) ;
#179 = ORIENTED_EDGE ( 'NONE', *, *, #139, .T. ) ;
#180 = DIRECTION ( 'NONE',  ( 0.0000000000000000000, 1.000000000000000000, -1.734723475976807100E-016 ) ) ;
#181 = CALENDAR_DATE ( 2018, 12, 3 ) ;
#182 = PRODUCT ( 'Web Model 48427_55262', 'Web Model 48427_55262', '', ( #150 ) ) ;
#183 = CALENDAR_DATE ( 2018, 12, 3 ) ;
#184 = ORIENTED_EDGE ( 'NONE', *, *, #71, .T. ) ;
#185 = CC_DESIGN_DATE_AND_TIME_ASSIGNMENT ( #47, #194, ( #178 ) ) ;
#186 = LOCAL_TIME ( 16, 54, 5.000000000000000000, #63 ) ;
#187 = PLANE ( 'NONE',  #57 ) ;
#188 = DIRECTION ( 'NONE',  ( 0.0000000000000000000, -1.000000000000000000, 1.734723475976807100E-016 ) ) ;
#189 = CARTESIAN_POINT ( 'NONE',  ( -4.750000000000000000, 14.99999999999999800, -15.00000000000000000 ) ) ;
#190 = CARTESIAN_POINT ( 'NONE',  ( 4.750000000000000000, -15.00000000000000200, 15.00000000000000500 ) ) ;
#191 = COORDINATED_UNIVERSAL_TIME_OFFSET ( 5, 0, .BEHIND. ) ;
#192 = APPROVAL_STATUS ( 'not_yet_approved' ) ;
#193 = DIRECTION ( 'NONE',  ( 0.0000000000000000000, -1.734723475976807100E-016, 1.000000000000000000 ) ) ;
#194 = DATE_TIME_ROLE ( 'classification_date' ) ;
#195 = CARTESIAN_POINT ( 'NONE',  ( -4.750000000000000000, -15.00000000000000200, 15.00000000000000500 ) ) ;
#196 = DESIGN_CONTEXT ( 'detailed design', #147, 'design' ) ;
#197 = CARTESIAN_POINT ( 'NONE',  ( 4.750000000000000000, 14.99999999999999800, -15.00000000000000000 ) ) ;
#198 = VERTEX_POINT ( 'NONE', #195 ) ;
#199 = AXIS2_PLACEMENT_3D ( 'NONE', #142, #112, #88 ) ;
#200 = VECTOR ( 'NONE', #231, 1000.000000000000000 ) ;
#201 = CC_DESIGN_PERSON_AND_ORGANIZATION_ASSIGNMENT ( #24, #133, ( #182 ) ) ;
#202 = MANIFOLD_SOLID_BREP ( 'Boss-Extrude1', #124 ) ;
#203 = PRODUCT_DEFINITION_SHAPE ( 'NONE', 'NONE',  #19 ) ;
#204 = UNCERTAINTY_MEASURE_WITH_UNIT (LENGTH_MEASURE( 1.000000000000000100E-005 ), #13, 'distance_accuracy_value', 'NONE');
#205 = LINE ( 'NONE', #77, #156 ) ;
#206 = VECTOR ( 'NONE', #60, 1000.000000000000000 ) ;
#207 = LINE ( 'NONE', #134, #72 ) ;
#208 = LINE ( 'NONE', #61, #31 ) ;
#209 = DIRECTION ( 'NONE',  ( 0.0000000000000000000, 0.0000000000000000000, -1.000000000000000000 ) ) ;
#210 =( NAMED_UNIT ( * ) PLANE_ANGLE_UNIT ( ) SI_UNIT ( $, .RADIAN. ) );
#211 = ORGANIZATION ( 'UNSPECIFIED', 'UNSPECIFIED', '' ) ;
#212 = DIRECTION ( 'NONE',  ( -0.0000000000000000000, 1.000000000000000000, 1.734723475976807100E-016 ) ) ;
#213 = PERSON ( 'UNSPECIFIED', 'UNSPECIFIED', 'UNSPECIFIED', ('UNSPECIFIED'), ('UNSPECIFIED'), ('UNSPECIFIED') ) ;
#214 = COORDINATED_UNIVERSAL_TIME_OFFSET ( 5, 0, .BEHIND. ) ;
#215 = ORIENTED_EDGE ( 'NONE', *, *, #139, .F. ) ;
#216 = DATE_AND_TIME ( #108, #42 ) ;
#217 = VERTEX_POINT ( 'NONE', #97 ) ;
#218 = LINE ( 'NONE', #11, #145 ) ;
#219 = EDGE_LOOP ( 'NONE', ( #2, #25, #165, #5 ) ) ;
#220 = DIRECTION ( 'NONE',  ( 1.000000000000000000, 0.0000000000000000000, 0.0000000000000000000 ) ) ;
#221 = APPLICATION_PROTOCOL_DEFINITION ( 'international standard', 'config_control_design', 1994, #151 ) ;
#222 = DIRECTION ( 'NONE',  ( -1.000000000000000000, -0.0000000000000000000, -0.0000000000000000000 ) ) ;
#223 = APPROVAL ( #192, 'UNSPECIFIED' ) ;
#224 = PLANE ( 'NONE',  #44 ) ;
#225 = APPLICATION_PROTOCOL_DEFINITION ( 'international standard', 'config_control_design', 1994, #147 ) ;
#226 = LINE ( 'NONE', #162, #87 ) ;
#227 = DIRECTION ( 'NONE',  ( 0.0000000000000000000, -1.000000000000000000, 1.734723475976807100E-016 ) ) ;
#228 = ORIENTED_EDGE ( 'NONE', *, *, #26, .T. ) ;
#229 = VERTEX_POINT ( 'NONE', #94 ) ;
#230 = SECURITY_CLASSIFICATION_LEVEL ( 'unclassified' ) ;
#231 = DIRECTION ( 'NONE',  ( -1.000000000000000000, -0.0000000000000000000, -0.0000000000000000000 ) ) ;
#232 = CARTESIAN_POINT ( 'NONE',  ( 4.750000000000000000, -15.00000000000000200, 15.00000000000000500 ) ) ;
#233 = LINE ( 'NONE', #172, #93 ) ;
#234 = ORIENTED_EDGE ( 'NONE', *, *, #29, .F. ) ;
#235 = CC_DESIGN_APPROVAL ( #74, ( #85 ) ) ;
#236 = EDGE_CURVE ( 'NONE', #146, #198, #207, .T. ) ;
#237 = VERTEX_POINT ( 'NONE', #167 ) ;
ENDSEC;
END-ISO-10303-21;
