ISO-10303-21;
HEADER;
FILE_DESCRIPTION (( 'STEP AP203' ),
    '1' );
FILE_NAME ('Web Model 43365_20741.step',
    '2022-03-15T15:20:46',
    ( '' ),
    ( '' ),
    'SwSTEP 2.0',
    'SolidWorks 2021',
    '' );
FILE_SCHEMA (( 'CONFIG_CONTROL_DESIGN' ));
ENDSEC;

DATA;
#1 = PERSON ( 'UNSPECIFIED', 'UNSPECIFIED', 'UNSPECIFIED', ('UNSPECIFIED'), ('UNSPECIFIED'), ('UNSPECIFIED') ) ;
#2 = DATE_AND_TIME ( #155, #142 ) ;
#3 = PERSON_AND_ORGANIZATION ( #1, #4 ) ;
#4 = ORGANIZATION ( 'UNSPECIFIED', 'UNSPECIFIED', '' ) ;
#5 = LOCAL_TIME ( 11, 20, 46.00000000000000000, #65 ) ;
#6 = APPROVAL_PERSON_ORGANIZATION ( #17, #145, #51 ) ;
#7 = ORIENTED_EDGE ( 'NONE', *, *, #23, .T. ) ;
#8 = EDGE_CURVE ( 'NONE', #125, #90, #126, .T. ) ;
#9 = VERTEX_POINT ( 'NONE', #135 ) ;
#10 = APPLICATION_CONTEXT ( 'configuration controlled 3d designs of mechanical parts and assemblies' ) ;
#11 = LOCAL_TIME ( 11, 20, 46.00000000000000000, #118 ) ;
#12 = DIRECTION ( 'NONE',  ( -1.000000000000000000, 0.000000000000000000, 0.000000000000000000 ) ) ;
#13 = DIRECTION ( 'NONE',  ( 0.000000000000000000, 0.000000000000000000, 1.000000000000000000 ) ) ;
#14 = CARTESIAN_POINT ( 'NONE',  ( 0.000000000000000000, 0.000000000000000000, 0.000000000000000000 ) ) ;
#15 = MECHANICAL_CONTEXT ( 'NONE', #10, 'mechanical' ) ;
#16 = PERSON_AND_ORGANIZATION_ROLE ( 'classification_officer' ) ;
#17 = PERSON_AND_ORGANIZATION ( #1, #4 ) ;
#18 = PRODUCT_DEFINITION_SHAPE ( 'NONE', 'NONE',  #35 ) ;
#19 = APPROVAL_PERSON_ORGANIZATION ( #131, #113, #91 ) ;
#20 = PRODUCT ( 'Web Model 43365_20741', 'Web Model 43365_20741', '', ( #15 ) ) ;
#21 = AXIS2_PLACEMENT_3D ( 'NONE', #100, #147, #49 ) ;
#22 = DIRECTION ( 'NONE',  ( -0.000000000000000000, -0.000000000000000000, -1.000000000000000000 ) ) ;
#23 = EDGE_CURVE ( 'NONE', #125, #9, #108, .T. ) ;
#24 = ORIENTED_EDGE ( 'NONE', *, *, #101, .T. ) ;
#25 = ORIENTED_EDGE ( 'NONE', *, *, #48, .F. ) ;
#26 = APPLICATION_CONTEXT ( 'configuration controlled 3d designs of mechanical parts and assemblies' ) ;
#27 = FACE_OUTER_BOUND ( 'NONE', #57, .T. ) ;
#28 = CC_DESIGN_APPROVAL ( #145, ( #35 ) ) ;
#29 =( NAMED_UNIT ( * ) PLANE_ANGLE_UNIT ( ) SI_UNIT ( $, .RADIAN. ) );
#30 = CC_DESIGN_APPROVAL ( #113, ( #157 ) ) ;
#31 = DIRECTION ( 'NONE',  ( -1.000000000000000000, 0.000000000000000000, 0.000000000000000000 ) ) ;
#32 =( NAMED_UNIT ( * ) SI_UNIT ( $, .STERADIAN. ) SOLID_ANGLE_UNIT ( ) );
#33 = CARTESIAN_POINT ( 'NONE',  ( 2.499999999999999556, 3.061616997868382648E-16, 0.5000000000000000000 ) ) ;
#34 = PERSON_AND_ORGANIZATION ( #1, #4 ) ;
#35 = PRODUCT_DEFINITION ( 'UNKNOWN', '', #56, #72 ) ;
#36 = CALENDAR_DATE ( 2022, 15, 3 ) ;
#37 = CIRCLE ( 'NONE', #42, 2.499999999999999556 ) ;
#38 = DIRECTION ( 'NONE',  ( 1.000000000000000000, 0.000000000000000000, -0.000000000000000000 ) ) ;
#39 = DIRECTION ( 'NONE',  ( -0.000000000000000000, -0.000000000000000000, -1.000000000000000000 ) ) ;
#40 = ORIENTED_EDGE ( 'NONE', *, *, #59, .T. ) ;
#41 = EDGE_LOOP ( 'NONE', ( #87, #112, #159, #24 ) ) ;
#42 = AXIS2_PLACEMENT_3D ( 'NONE', #14, #62, #164 ) ;
#43 = LOCAL_TIME ( 11, 20, 46.00000000000000000, #166 ) ;
#44 = CARTESIAN_POINT ( 'NONE',  ( 2.499999999999999556, 3.061616997868382648E-16, 0.000000000000000000 ) ) ;
#45 = APPROVAL_DATE_TIME ( #107, #145 ) ;
#46 = CARTESIAN_POINT ( 'NONE',  ( 0.000000000000000000, 0.000000000000000000, 0.5000000000000000000 ) ) ;
#47 = CARTESIAN_POINT ( 'NONE',  ( 0.000000000000000000, 0.000000000000000000, 0.5000000000000000000 ) ) ;
#48 = EDGE_CURVE ( 'NONE', #9, #171, #111, .T. ) ;
#49 = DIRECTION ( 'NONE',  ( 1.000000000000000000, 0.000000000000000000, 0.000000000000000000 ) ) ;
#50 = APPROVAL_DATE_TIME ( #152, #113 ) ;
#51 = APPROVAL_ROLE ( '' ) ;
#52 = CALENDAR_DATE ( 2022, 15, 3 ) ;
#53 = AXIS2_PLACEMENT_3D ( 'NONE', #46, #81, #12 ) ;
#54 = CC_DESIGN_DATE_AND_TIME_ASSIGNMENT ( #2, #64, ( #35 ) ) ;
#55 = CARTESIAN_POINT ( 'NONE',  ( 0.000000000000000000, 0.000000000000000000, 0.5000000000000000000 ) ) ;
#56 = PRODUCT_DEFINITION_FORMATION_WITH_SPECIFIED_SOURCE ( 'ANY', '', #20, .NOT_KNOWN. ) ;
#57 = EDGE_LOOP ( 'NONE', ( #174, #89, #73, #25 ) ) ;
#58 = ORIENTED_EDGE ( 'NONE', *, *, #101, .F. ) ;
#59 = EDGE_CURVE ( 'NONE', #9, #125, #85, .T. ) ;
#60 = DATE_AND_TIME ( #36, #5 ) ;
#61 = APPROVAL_STATUS ( 'not_yet_approved' ) ;
#62 = DIRECTION ( 'NONE',  ( 0.000000000000000000, 0.000000000000000000, 1.000000000000000000 ) ) ;
#63 = APPROVAL_STATUS ( 'not_yet_approved' ) ;
#64 = DATE_TIME_ROLE ( 'creation_date' ) ;
#65 = COORDINATED_UNIVERSAL_TIME_OFFSET ( 5, 0, .BEHIND. ) ;
#66 = APPROVAL ( #156, 'UNSPECIFIED' ) ;
#67 = VECTOR ( 'NONE', #39, 1000.000000000000000 ) ;
#68 = LOCAL_TIME ( 11, 20, 46.00000000000000000, #83 ) ;
#69 = CC_DESIGN_PERSON_AND_ORGANIZATION_ASSIGNMENT ( #79, #121, ( #20 ) ) ;
#70 = CC_DESIGN_PERSON_AND_ORGANIZATION_ASSIGNMENT ( #168, #141, ( #56 ) ) ;
#71 = DIRECTION ( 'NONE',  ( 1.000000000000000000, 0.000000000000000000, 0.000000000000000000 ) ) ;
#72 = DESIGN_CONTEXT ( 'detailed design', #26, 'design' ) ;
#73 = ORIENTED_EDGE ( 'NONE', *, *, #88, .T. ) ;
#74 = AXIS2_PLACEMENT_3D ( 'NONE', #77, #151, #31 ) ;
#75 = FACE_OUTER_BOUND ( 'NONE', #41, .T. ) ;
#76 =( LENGTH_UNIT ( ) NAMED_UNIT ( * ) SI_UNIT ( .MILLI., .METRE. ) );
#77 = CARTESIAN_POINT ( 'NONE',  ( 0.000000000000000000, 0.000000000000000000, 0.5000000000000000000 ) ) ;
#78 = DATE_TIME_ROLE ( 'classification_date' ) ;
#79 = PERSON_AND_ORGANIZATION ( #1, #4 ) ;
#80 = MANIFOLD_SOLID_BREP ( 'Boss-Extrude1', #175 ) ;
#81 = DIRECTION ( 'NONE',  ( -0.000000000000000000, -0.000000000000000000, -1.000000000000000000 ) ) ;
#82 = SHAPE_DEFINITION_REPRESENTATION ( #18, #134 ) ;
#83 = COORDINATED_UNIVERSAL_TIME_OFFSET ( 5, 0, .BEHIND. ) ;
#84 = ADVANCED_FACE ( 'NONE', ( #27 ), #162, .T. ) ;
#85 = CIRCLE ( 'NONE', #21, 2.499999999999999556 ) ;
#86 = CARTESIAN_POINT ( 'NONE',  ( -2.499999999999999556, 0.000000000000000000, 0.5000000000000000000 ) ) ;
#87 = ORIENTED_EDGE ( 'NONE', *, *, #8, .F. ) ;
#88 = EDGE_CURVE ( 'NONE', #90, #171, #37, .T. ) ;
#89 = ORIENTED_EDGE ( 'NONE', *, *, #8, .T. ) ;
#90 = VERTEX_POINT ( 'NONE', #44 ) ;
#91 = APPROVAL_ROLE ( '' ) ;
#92 = CARTESIAN_POINT ( 'NONE',  ( 0.000000000000000000, 0.000000000000000000, 0.000000000000000000 ) ) ;
#93 = AXIS2_PLACEMENT_3D ( 'NONE', #163, #129, #97 ) ;
#94 = FACE_OUTER_BOUND ( 'NONE', #115, .T. ) ;
#95 = DIRECTION ( 'NONE',  ( 0.000000000000000000, 0.000000000000000000, 1.000000000000000000 ) ) ;
#96 = FACE_OUTER_BOUND ( 'NONE', #136, .T. ) ;
#97 = DIRECTION ( 'NONE',  ( 1.000000000000000000, 0.000000000000000000, 0.000000000000000000 ) ) ;
#98 =( GEOMETRIC_REPRESENTATION_CONTEXT ( 3 ) GLOBAL_UNCERTAINTY_ASSIGNED_CONTEXT ( ( #148 ) ) GLOBAL_UNIT_ASSIGNED_CONTEXT ( ( #76, #29, #32 ) ) REPRESENTATION_CONTEXT ( 'NONE', 'WORKASPACE' ) );
#99 = SECURITY_CLASSIFICATION_LEVEL ( 'unclassified' ) ;
#100 = CARTESIAN_POINT ( 'NONE',  ( 0.000000000000000000, 0.000000000000000000, 0.5000000000000000000 ) ) ;
#101 = EDGE_CURVE ( 'NONE', #171, #90, #150, .T. ) ;
#102 = ADVANCED_FACE ( 'NONE', ( #75 ), #104, .T. ) ;
#103 = CARTESIAN_POINT ( 'NONE',  ( 0.000000000000000000, 0.000000000000000000, 0.000000000000000000 ) ) ;
#104 = CYLINDRICAL_SURFACE ( 'NONE', #74, 2.499999999999999556 ) ;
#105 = CALENDAR_DATE ( 2022, 15, 3 ) ;
#106 = DIRECTION ( 'NONE',  ( 1.000000000000000000, 0.000000000000000000, 0.000000000000000000 ) ) ;
#107 = DATE_AND_TIME ( #105, #11 ) ;
#108 = CIRCLE ( 'NONE', #116, 2.499999999999999556 ) ;
#109 = CC_DESIGN_APPROVAL ( #66, ( #56 ) ) ;
#110 = CC_DESIGN_PERSON_AND_ORGANIZATION_ASSIGNMENT ( #34, #123, ( #56 ) ) ;
#111 = LINE ( 'NONE', #86, #67 ) ;
#112 = ORIENTED_EDGE ( 'NONE', *, *, #59, .F. ) ;
#113 = APPROVAL ( #63, 'UNSPECIFIED' ) ;
#114 = DIRECTION ( 'NONE',  ( 0.000000000000000000, 0.000000000000000000, 1.000000000000000000 ) ) ;
#115 = EDGE_LOOP ( 'NONE', ( #40, #7 ) ) ;
#116 = AXIS2_PLACEMENT_3D ( 'NONE', #55, #114, #71 ) ;
#117 = CARTESIAN_POINT ( 'NONE',  ( -2.499999999999999556, 0.000000000000000000, 0.000000000000000000 ) ) ;
#118 = COORDINATED_UNIVERSAL_TIME_OFFSET ( 5, 0, .BEHIND. ) ;
#119 = CC_DESIGN_SECURITY_CLASSIFICATION ( #157, ( #56 ) ) ;
#120 = APPROVAL_ROLE ( '' ) ;
#121 = PERSON_AND_ORGANIZATION_ROLE ( 'design_owner' ) ;
#122 = CC_DESIGN_PERSON_AND_ORGANIZATION_ASSIGNMENT ( #3, #130, ( #35 ) ) ;
#123 = PERSON_AND_ORGANIZATION_ROLE ( 'creator' ) ;
#124 = APPROVAL_PERSON_ORGANIZATION ( #128, #66, #120 ) ;
#125 = VERTEX_POINT ( 'NONE', #33 ) ;
#126 = LINE ( 'NONE', #173, #137 ) ;
#127 = AXIS2_PLACEMENT_3D ( 'NONE', #92, #138, #106 ) ;
#128 = PERSON_AND_ORGANIZATION ( #1, #4 ) ;
#129 = DIRECTION ( 'NONE',  ( 0.000000000000000000, 0.000000000000000000, 1.000000000000000000 ) ) ;
#130 = PERSON_AND_ORGANIZATION_ROLE ( 'creator' ) ;
#131 = PERSON_AND_ORGANIZATION ( #1, #4 ) ;
#132 = DIRECTION ( 'NONE',  ( 1.000000000000000000, 0.000000000000000000, -0.000000000000000000 ) ) ;
#133 = COORDINATED_UNIVERSAL_TIME_OFFSET ( 5, 0, .BEHIND. ) ;
#134 = ADVANCED_BREP_SHAPE_REPRESENTATION ( 'Web Model 43365_20741', ( #80, #93 ), #98 ) ;
#135 = CARTESIAN_POINT ( 'NONE',  ( -2.499999999999999556, 0.000000000000000000, 0.5000000000000000000 ) ) ;
#136 = EDGE_LOOP ( 'NONE', ( #58, #158 ) ) ;
#137 = VECTOR ( 'NONE', #22, 1000.000000000000000 ) ;
#138 = DIRECTION ( 'NONE',  ( 0.000000000000000000, 0.000000000000000000, 1.000000000000000000 ) ) ;
#139 = PRODUCT_RELATED_PRODUCT_CATEGORY ( 'detail', '', ( #20 ) ) ;
#140 = DATE_AND_TIME ( #52, #68 ) ;
#141 = PERSON_AND_ORGANIZATION_ROLE ( 'design_supplier' ) ;
#142 = LOCAL_TIME ( 11, 20, 46.00000000000000000, #133 ) ;
#143 = PERSON_AND_ORGANIZATION ( #1, #4 ) ;
#144 = ADVANCED_FACE ( 'NONE', ( #96 ), #161, .F. ) ;
#145 = APPROVAL ( #61, 'UNSPECIFIED' ) ;
#146 = CC_DESIGN_PERSON_AND_ORGANIZATION_ASSIGNMENT ( #143, #16, ( #157 ) ) ;
#147 = DIRECTION ( 'NONE',  ( 0.000000000000000000, 0.000000000000000000, 1.000000000000000000 ) ) ;
#148 = UNCERTAINTY_MEASURE_WITH_UNIT (LENGTH_MEASURE( 1.000000000000000082E-05 ), #76, 'distance_accuracy_value', 'NONE');
#149 = APPLICATION_PROTOCOL_DEFINITION ( 'international standard', 'config_control_design', 1994, #10 ) ;
#150 = CIRCLE ( 'NONE', #127, 2.499999999999999556 ) ;
#151 = DIRECTION ( 'NONE',  ( -0.000000000000000000, -0.000000000000000000, -1.000000000000000000 ) ) ;
#152 = DATE_AND_TIME ( #153, #43 ) ;
#153 = CALENDAR_DATE ( 2022, 15, 3 ) ;
#154 = APPROVAL_DATE_TIME ( #60, #66 ) ;
#155 = CALENDAR_DATE ( 2022, 15, 3 ) ;
#156 = APPROVAL_STATUS ( 'not_yet_approved' ) ;
#157 = SECURITY_CLASSIFICATION ( '', '', #99 ) ;
#158 = ORIENTED_EDGE ( 'NONE', *, *, #88, .F. ) ;
#159 = ORIENTED_EDGE ( 'NONE', *, *, #48, .T. ) ;
#160 = AXIS2_PLACEMENT_3D ( 'NONE', #103, #95, #132 ) ;
#161 = PLANE ( 'NONE',  #160 ) ;
#162 = CYLINDRICAL_SURFACE ( 'NONE', #53, 2.499999999999999556 ) ;
#163 = CARTESIAN_POINT ( 'NONE',  ( 0.000000000000000000, 0.000000000000000000, 0.000000000000000000 ) ) ;
#164 = DIRECTION ( 'NONE',  ( 1.000000000000000000, 0.000000000000000000, 0.000000000000000000 ) ) ;
#165 = PLANE ( 'NONE',  #169 ) ;
#166 = COORDINATED_UNIVERSAL_TIME_OFFSET ( 5, 0, .BEHIND. ) ;
#167 = APPLICATION_PROTOCOL_DEFINITION ( 'international standard', 'config_control_design', 1994, #26 ) ;
#168 = PERSON_AND_ORGANIZATION ( #1, #4 ) ;
#169 = AXIS2_PLACEMENT_3D ( 'NONE', #47, #13, #38 ) ;
#170 = CC_DESIGN_DATE_AND_TIME_ASSIGNMENT ( #140, #78, ( #157 ) ) ;
#171 = VERTEX_POINT ( 'NONE', #117 ) ;
#172 = ADVANCED_FACE ( 'NONE', ( #94 ), #165, .T. ) ;
#173 = CARTESIAN_POINT ( 'NONE',  ( 2.499999999999999556, 3.061616997868382648E-16, 0.5000000000000000000 ) ) ;
#174 = ORIENTED_EDGE ( 'NONE', *, *, #23, .F. ) ;
#175 = CLOSED_SHELL ( 'NONE', ( #84, #102, #172, #144 ) ) ;
ENDSEC;
END-ISO-10303-21;
