ISO-10303-21;
HEADER;
FILE_DESCRIPTION (( 'STEP AP203' ),
    '1' );
FILE_NAME ('step_49871.step',
    '2014-06-05T18:40:22',
    ( '' ),
    ( '' ),
    'SwSTEP 2.0',
    'SolidWorks 2014',
    '' );
FILE_SCHEMA (( 'CONFIG_CONTROL_DESIGN' ));
ENDSEC;

DATA;
#1 = CC_DESIGN_APPROVAL ( #4, ( #13 ) ) ;
#2 = DIRECTION ( 'NONE',  ( -0.0000000000000000000, -0.0000000000000000000, -1.000000000000000000 ) ) ;
#3 = DIRECTION ( 'NONE',  ( 1.000000000000000000, 0.0000000000000000000, 0.0000000000000000000 ) ) ;
#4 = APPROVAL ( #242, 'UNSPECIFIED' ) ;
#5 = VECTOR ( 'NONE', #87, 1000.000000000000000 ) ;
#6 = DIRECTION ( 'NONE',  ( 1.000000000000000000, -9.182963861547803600E-017, -0.0000000000000000000 ) ) ;
#7 = VECTOR ( 'NONE', #2, 1000.000000000000000 ) ;
#8 = ADVANCED_FACE ( 'NONE', ( #196 ), #217, .F. ) ;
#9 = CC_DESIGN_DATE_AND_TIME_ASSIGNMENT ( #166, #270, ( #13 ) ) ;
#10 = VECTOR ( 'NONE', #97, 1000.000000000000100 ) ;
#11 = LOCAL_TIME ( 11, 40, 22.00000000000000000, #168 ) ;
#12 = CC_DESIGN_PERSON_AND_ORGANIZATION_ASSIGNMENT ( #73, #120, ( #13 ) ) ;
#13 = SECURITY_CLASSIFICATION ( '', '', #285 ) ;
#14 = ORIENTED_EDGE ( 'NONE', *, *, #289, .F. ) ;
#15 = PERSON_AND_ORGANIZATION ( #143, #34 ) ;
#16 = VECTOR ( 'NONE', #176, 1000.000000000000000 ) ;
#17 = APPROVAL_ROLE ( '' ) ;
#18 = DATE_AND_TIME ( #98, #104 ) ;
#19 = ORIENTED_EDGE ( 'NONE', *, *, #277, .T. ) ;
#20 = CC_DESIGN_PERSON_AND_ORGANIZATION_ASSIGNMENT ( #146, #161, ( #44 ) ) ;
#21 = LINE ( 'NONE', #240, #184 ) ;
#22 = CC_DESIGN_PERSON_AND_ORGANIZATION_ASSIGNMENT ( #31, #171, ( #44 ) ) ;
#23 = CALENDAR_DATE ( 2014, 5, 6 ) ;
#24 = CARTESIAN_POINT ( 'NONE',  ( 0.0000000000000000000, 0.0000000000000000000, 20.00000000000000000 ) ) ;
#25 = FACE_OUTER_BOUND ( 'NONE', #195, .T. ) ;
#26 = CARTESIAN_POINT ( 'NONE',  ( 20.00000000000000400, -1.836592772309561100E-015, 20.00000000000000000 ) ) ;
#27 = CARTESIAN_POINT ( 'NONE',  ( 0.0000000000000000000, 0.0000000000000000000, 20.00000000000000000 ) ) ;
#28 = CC_DESIGN_APPROVAL ( #36, ( #44 ) ) ;
#29 = PLANE ( 'NONE',  #250 ) ;
#30 = EDGE_LOOP ( 'NONE', ( #101, #173, #223 ) ) ;
#31 = PERSON_AND_ORGANIZATION ( #143, #34 ) ;
#32 = PRODUCT_RELATED_PRODUCT_CATEGORY ( 'detail', '', ( #194 ) ) ;
#33 = ORIENTED_EDGE ( 'NONE', *, *, #277, .F. ) ;
#34 = ORGANIZATION ( 'UNSPECIFIED', 'UNSPECIFIED', '' ) ;
#35 = VERTEX_POINT ( 'NONE', #219 ) ;
#36 = APPROVAL ( #50, 'UNSPECIFIED' ) ;
#37 = ORIENTED_EDGE ( 'NONE', *, *, #291, .F. ) ;
#38 = APPROVAL_DATE_TIME ( #18, #36 ) ;
#39 = CARTESIAN_POINT ( 'NONE',  ( 0.0000000000000000000, 0.0000000000000000000, 0.0000000000000000000 ) ) ;
#40 = ADVANCED_FACE ( 'NONE', ( #226 ), #231, .F. ) ;
#41 = CARTESIAN_POINT ( 'NONE',  ( 20.00000000000000400, -1.836592772309561100E-015, 0.0000000000000000000 ) ) ;
#42 = EDGE_LOOP ( 'NONE', ( #66, #208, #235 ) ) ;
#43 = LINE ( 'NONE', #24, #7 ) ;
#44 = PRODUCT_DEFINITION_FORMATION_WITH_SPECIFIED_SOURCE ( 'ANY', '', #194, .NOT_KNOWN. ) ;
#45 = CC_DESIGN_DATE_AND_TIME_ASSIGNMENT ( #175, #51, ( #64 ) ) ;
#46 = VERTEX_POINT ( 'NONE', #245 ) ;
#47 = LINE ( 'NONE', #221, #56 ) ;
#48 = LOCAL_TIME ( 11, 40, 22.00000000000000000, #54 ) ;
#49 = CC_DESIGN_PERSON_AND_ORGANIZATION_ASSIGNMENT ( #283, #80, ( #64 ) ) ;
#50 = APPROVAL_STATUS ( 'not_yet_approved' ) ;
#51 = DATE_TIME_ROLE ( 'creation_date' ) ;
#52 = ORIENTED_EDGE ( 'NONE', *, *, #93, .T. ) ;
#53 = ORIENTED_EDGE ( 'NONE', *, *, #205, .T. ) ;
#54 = COORDINATED_UNIVERSAL_TIME_OFFSET ( 7, 0, .BEHIND. ) ;
#55 = VERTEX_POINT ( 'NONE', #155 ) ;
#56 = VECTOR ( 'NONE', #218, 1000.000000000000100 ) ;
#57 = CARTESIAN_POINT ( 'NONE',  ( 20.00000000000000000, 20.00000000000000000, 20.00000000000000000 ) ) ;
#58 = CC_DESIGN_APPROVAL ( #62, ( #64 ) ) ;
#59 = DIRECTION ( 'NONE',  ( -0.7071067811865474600, -0.7071067811865474600, -0.0000000000000000000 ) ) ;
#60 = EDGE_LOOP ( 'NONE', ( #77, #179, #130 ) ) ;
#61 = CARTESIAN_POINT ( 'NONE',  ( 20.00000000000000400, -1.836592772309561100E-015, 20.00000000000000000 ) ) ;
#62 = APPROVAL ( #103, 'UNSPECIFIED' ) ;
#63 = DIRECTION ( 'NONE',  ( -0.7071067811865474600, -0.7071067811865474600, -0.0000000000000000000 ) ) ;
#64 = PRODUCT_DEFINITION ( 'UNKNOWN', '', #44, #262 ) ;
#65 = CARTESIAN_POINT ( 'NONE',  ( 0.0000000000000000000, 0.0000000000000000000, 20.00000000000000000 ) ) ;
#66 = ORIENTED_EDGE ( 'NONE', *, *, #291, .T. ) ;
#67 = CARTESIAN_POINT ( 'NONE',  ( 0.0000000000000000000, 20.00000000000000000, 0.0000000000000000000 ) ) ;
#68 = ADVANCED_FACE ( 'NONE', ( #118 ), #159, .F. ) ;
#69 = CC_DESIGN_PERSON_AND_ORGANIZATION_ASSIGNMENT ( #15, #112, ( #194 ) ) ;
#70 = LINE ( 'NONE', #131, #10 ) ;
#71 = LOCAL_TIME ( 11, 40, 22.00000000000000000, #92 ) ;
#72 = ORIENTED_EDGE ( 'NONE', *, *, #164, .T. ) ;
#73 = PERSON_AND_ORGANIZATION ( #143, #34 ) ;
#74 = AXIS2_PLACEMENT_3D ( 'NONE', #39, #284, #300 ) ;
#75 = DIRECTION ( 'NONE',  ( -1.734723475976806800E-016, 1.000000000000000000, -0.0000000000000000000 ) ) ;
#76 = SHAPE_DEFINITION_REPRESENTATION ( #119, #239 ) ;
#77 = ORIENTED_EDGE ( 'NONE', *, *, #319, .T. ) ;
#78 = CARTESIAN_POINT ( 'NONE',  ( 20.00000000000000000, 20.00000000000000000, 20.00000000000000000 ) ) ;
#79 = CARTESIAN_POINT ( 'NONE',  ( 0.0000000000000000000, 0.0000000000000000000, 0.0000000000000000000 ) ) ;
#80 = PERSON_AND_ORGANIZATION_ROLE ( 'creator' ) ;
#81 = DIRECTION ( 'NONE',  ( -1.000000000000000000, 9.182963861547803600E-017, 0.0000000000000000000 ) ) ;
#82 = APPROVAL_ROLE ( '' ) ;
#83 = ORIENTED_EDGE ( 'NONE', *, *, #321, .T. ) ;
#84 = FACE_OUTER_BOUND ( 'NONE', #60, .T. ) ;
#85 = EDGE_CURVE ( 'NONE', #297, #35, #220, .T. ) ;
#86 = DIRECTION ( 'NONE',  ( 9.182963861547803600E-017, 1.000000000000000000, -0.0000000000000000000 ) ) ;
#87 = DIRECTION ( 'NONE',  ( -0.0000000000000000000, -0.0000000000000000000, -1.000000000000000000 ) ) ;
#88 = CARTESIAN_POINT ( 'NONE',  ( 20.00000000000000400, -1.836592772309561100E-015, 20.00000000000000000 ) ) ;
#89 = CLOSED_SHELL ( 'NONE', ( #252, #40, #8, #68, #204 ) ) ;
#90 = DIRECTION ( 'NONE',  ( -0.0000000000000000000, -1.000000000000000000, -0.0000000000000000000 ) ) ;
#91 = ORIENTED_EDGE ( 'NONE', *, *, #321, .F. ) ;
#92 = COORDINATED_UNIVERSAL_TIME_OFFSET ( 7, 0, .BEHIND. ) ;
#93 = EDGE_CURVE ( 'NONE', #260, #55, #129, .T. ) ;
#94 = CARTESIAN_POINT ( 'NONE',  ( 0.0000000000000000000, 0.0000000000000000000, 20.00000000000000000 ) ) ;
#95 = ADVANCED_FACE ( 'NONE', ( #25 ), #29, .F. ) ;
#96 = FACE_OUTER_BOUND ( 'NONE', #257, .T. ) ;
#97 = DIRECTION ( 'NONE',  ( 0.7071067811865474600, 0.7071067811865474600, -0.0000000000000000000 ) ) ;
#98 = CALENDAR_DATE ( 2014, 5, 6 ) ;
#99 = PLANE ( 'NONE',  #106 ) ;
#100 = CC_DESIGN_SECURITY_CLASSIFICATION ( #13, ( #44 ) ) ;
#101 = ORIENTED_EDGE ( 'NONE', *, *, #205, .F. ) ;
#102 = LINE ( 'NONE', #169, #174 ) ;
#103 = APPROVAL_STATUS ( 'not_yet_approved' ) ;
#104 = LOCAL_TIME ( 11, 40, 22.00000000000000000, #170 ) ;
#105 = DIRECTION ( 'NONE',  ( -0.0000000000000000000, -0.0000000000000000000, -1.000000000000000000 ) ) ;
#106 = AXIS2_PLACEMENT_3D ( 'NONE', #88, #86, #81 ) ;
#107 = APPLICATION_PROTOCOL_DEFINITION ( 'international standard', 'config_control_design', 1994, #136 ) ;
#108 = APPROVAL_PERSON_ORGANIZATION ( #160, #4, #246 ) ;
#109 = EDGE_LOOP ( 'NONE', ( #33, #238, #199 ) ) ;
#110 =( GEOMETRIC_REPRESENTATION_CONTEXT ( 3 ) GLOBAL_UNCERTAINTY_ASSIGNED_CONTEXT ( ( #187 ) ) GLOBAL_UNIT_ASSIGNED_CONTEXT ( ( #138, #188, #189 ) ) REPRESENTATION_CONTEXT ( 'NONE', 'WORKASPACE' ) );
#111 = ORIENTED_EDGE ( 'NONE', *, *, #85, .T. ) ;
#112 = PERSON_AND_ORGANIZATION_ROLE ( 'design_owner' ) ;
#113 = VECTOR ( 'NONE', #6, 1000.000000000000000 ) ;
#114 = LINE ( 'NONE', #266, #225 ) ;
#115 = AXIS2_PLACEMENT_3D ( 'NONE', #153, #148, #141 ) ;
#116 = CARTESIAN_POINT ( 'NONE',  ( 0.0000000000000000000, 20.00000000000000000, 20.00000000000000000 ) ) ;
#117 = DIRECTION ( 'NONE',  ( 1.000000000000000000, -9.182963861547803600E-017, -0.0000000000000000000 ) ) ;
#118 = FACE_OUTER_BOUND ( 'NONE', #42, .T. ) ;
#119 = PRODUCT_DEFINITION_SHAPE ( 'NONE', 'NONE',  #64 ) ;
#120 = PERSON_AND_ORGANIZATION_ROLE ( 'classification_officer' ) ;
#121 = CARTESIAN_POINT ( 'NONE',  ( 20.00000000000000400, -1.836592772309561100E-015, 0.0000000000000000000 ) ) ;
#122 = AXIS2_PLACEMENT_3D ( 'NONE', #222, #197, #186 ) ;
#123 = DIRECTION ( 'NONE',  ( -1.000000000000000000, 0.0000000000000000000, 0.0000000000000000000 ) ) ;
#124 = LINE ( 'NONE', #57, #152 ) ;
#125 = VECTOR ( 'NONE', #63, 1000.000000000000100 ) ;
#126 = CARTESIAN_POINT ( 'NONE',  ( 0.0000000000000000000, 0.0000000000000000000, 20.00000000000000000 ) ) ;
#127 = MANIFOLD_SOLID_BREP ( 'Boss-Extrude2', #207 ) ;
#128 = EDGE_CURVE ( 'NONE', #308, #55, #249, .T. ) ;
#129 = LINE ( 'NONE', #78, #5 ) ;
#130 = ORIENTED_EDGE ( 'NONE', *, *, #296, .T. ) ;
#131 = CARTESIAN_POINT ( 'NONE',  ( 20.00000000000000000, 20.00000000000000000, 20.00000000000000000 ) ) ;
#132 = ORIENTED_EDGE ( 'NONE', *, *, #303, .F. ) ;
#133 = CARTESIAN_POINT ( 'NONE',  ( 20.00000000000000400, -1.836592772309561100E-015, 20.00000000000000000 ) ) ;
#134 = VECTOR ( 'NONE', #117, 1000.000000000000000 ) ;
#135 = PERSON_AND_ORGANIZATION ( #143, #34 ) ;
#136 = APPLICATION_CONTEXT ( 'configuration controlled 3d designs of mechanical parts and assemblies' ) ;
#137 = ORIENTED_EDGE ( 'NONE', *, *, #93, .F. ) ;
#138 =( LENGTH_UNIT ( ) NAMED_UNIT ( * ) SI_UNIT ( .MILLI., .METRE. ) );
#139 = LINE ( 'NONE', #181, #230 ) ;
#140 = EDGE_LOOP ( 'NONE', ( #320, #236, #215, #172 ) ) ;
#141 = DIRECTION ( 'NONE',  ( 1.734723475976806800E-016, -1.000000000000000000, 0.0000000000000000000 ) ) ;
#142 = DIRECTION ( 'NONE',  ( 0.0000000000000000000, 0.0000000000000000000, -1.000000000000000000 ) ) ;
#143 = PERSON ( 'UNSPECIFIED', 'UNSPECIFIED', 'UNSPECIFIED', ('UNSPECIFIED'), ('UNSPECIFIED'), ('UNSPECIFIED') ) ;
#144 = VERTEX_POINT ( 'NONE', #309 ) ;
#145 = ORIENTED_EDGE ( 'NONE', *, *, #164, .F. ) ;
#146 = PERSON_AND_ORGANIZATION ( #143, #34 ) ;
#147 = ORIENTED_EDGE ( 'NONE', *, *, #319, .F. ) ;
#148 = DIRECTION ( 'NONE',  ( -1.000000000000000000, -1.734723475976806800E-016, 0.0000000000000000000 ) ) ;
#149 = ORIENTED_EDGE ( 'NONE', *, *, #296, .F. ) ;
#150 = LINE ( 'NONE', #210, #213 ) ;
#151 = PLANE ( 'NONE',  #115 ) ;
#152 = VECTOR ( 'NONE', #75, 1000.000000000000000 ) ;
#153 = CARTESIAN_POINT ( 'NONE',  ( 20.00000000000000000, 20.00000000000000000, 20.00000000000000000 ) ) ;
#154 = DIRECTION ( 'NONE',  ( -0.0000000000000000000, -0.0000000000000000000, -1.000000000000000000 ) ) ;
#155 = CARTESIAN_POINT ( 'NONE',  ( 20.00000000000000000, 20.00000000000000000, 0.0000000000000000000 ) ) ;
#156 = AXIS2_PLACEMENT_3D ( 'NONE', #247, #228, #227 ) ;
#157 = ORIENTED_EDGE ( 'NONE', *, *, #128, .T. ) ;
#158 = ADVANCED_FACE ( 'NONE', ( #84 ), #295, .T. ) ;
#159 = PLANE ( 'NONE',  #267 ) ;
#160 = PERSON_AND_ORGANIZATION ( #143, #34 ) ;
#161 = PERSON_AND_ORGANIZATION_ROLE ( 'design_supplier' ) ;
#162 = FACE_OUTER_BOUND ( 'NONE', #109, .T. ) ;
#163 = CARTESIAN_POINT ( 'NONE',  ( 0.0000000000000000000, 0.0000000000000000000, 0.0000000000000000000 ) ) ;
#164 = EDGE_CURVE ( 'NONE', #279, #35, #114, .T. ) ;
#165 = DIRECTION ( 'NONE',  ( 0.0000000000000000000, -1.000000000000000000, 0.0000000000000000000 ) ) ;
#166 = DATE_AND_TIME ( #216, #48 ) ;
#167 = VERTEX_POINT ( 'NONE', #278 ) ;
#168 = COORDINATED_UNIVERSAL_TIME_OFFSET ( 7, 0, .BEHIND. ) ;
#169 = CARTESIAN_POINT ( 'NONE',  ( 0.0000000000000000000, 20.00000000000000000, 20.00000000000000000 ) ) ;
#170 = COORDINATED_UNIVERSAL_TIME_OFFSET ( 7, 0, .BEHIND. ) ;
#171 = PERSON_AND_ORGANIZATION_ROLE ( 'creator' ) ;
#172 = ORIENTED_EDGE ( 'NONE', *, *, #258, .T. ) ;
#173 = ORIENTED_EDGE ( 'NONE', *, *, #85, .F. ) ;
#174 = VECTOR ( 'NONE', #154, 1000.000000000000000 ) ;
#175 = DATE_AND_TIME ( #253, #265 ) ;
#176 = DIRECTION ( 'NONE',  ( -0.0000000000000000000, -0.0000000000000000000, -1.000000000000000000 ) ) ;
#177 = DATE_AND_TIME ( #302, #11 ) ;
#178 = DIRECTION ( 'NONE',  ( -1.000000000000000000, -0.0000000000000000000, -0.0000000000000000000 ) ) ;
#179 = ORIENTED_EDGE ( 'NONE', *, *, #303, .T. ) ;
#180 = LINE ( 'NONE', #79, #200 ) ;
#181 = CARTESIAN_POINT ( 'NONE',  ( 0.0000000000000000000, 20.00000000000000000, 20.00000000000000000 ) ) ;
#182 = CARTESIAN_POINT ( 'NONE',  ( 20.00000000000000000, 20.00000000000000000, 20.00000000000000000 ) ) ;
#183 = ADVANCED_FACE ( 'NONE', ( #162 ), #286, .F. ) ;
#184 = VECTOR ( 'NONE', #234, 1000.000000000000000 ) ;
#185 = AXIS2_PLACEMENT_3D ( 'NONE', #254, #251, #248 ) ;
#186 = DIRECTION ( 'NONE',  ( -0.7071067811865474600, -0.7071067811865474600, 0.0000000000000000000 ) ) ;
#187 = UNCERTAINTY_MEASURE_WITH_UNIT (LENGTH_MEASURE( 1.000000000000000100E-005 ), #138, 'distance_accuracy_value', 'NONE');
#188 =( NAMED_UNIT ( * ) PLANE_ANGLE_UNIT ( ) SI_UNIT ( $, .RADIAN. ) );
#189 =( NAMED_UNIT ( * ) SI_UNIT ( $, .STERADIAN. ) SOLID_ANGLE_UNIT ( ) );
#190 = DIRECTION ( 'NONE',  ( 0.0000000000000000000, -0.0000000000000000000, -1.000000000000000000 ) ) ;
#191 = VECTOR ( 'NONE', #90, 1000.000000000000000 ) ;
#192 = EDGE_LOOP ( 'NONE', ( #53, #314, #37, #72 ) ) ;
#193 = EDGE_CURVE ( 'NONE', #290, #279, #21, .T. ) ;
#194 = PRODUCT ( 'step_49871', 'step_49871', '', ( #317 ) ) ;
#195 = EDGE_LOOP ( 'NONE', ( #274, #91, #149, #52 ) ) ;
#196 = FACE_OUTER_BOUND ( 'NONE', #312, .T. ) ;
#197 = DIRECTION ( 'NONE',  ( -0.7071067811865475700, 0.7071067811865475700, 0.0000000000000000000 ) ) ;
#198 = CARTESIAN_POINT ( 'NONE',  ( 0.0000000000000000000, 0.0000000000000000000, 20.00000000000000000 ) ) ;
#199 = ORIENTED_EDGE ( 'NONE', *, *, #128, .F. ) ;
#200 = VECTOR ( 'NONE', #59, 1000.000000000000100 ) ;
#201 = LINE ( 'NONE', #65, #125 ) ;
#202 = CARTESIAN_POINT ( 'NONE',  ( 0.0000000000000000000, 20.00000000000000000, 20.00000000000000000 ) ) ;
#203 = PLANE ( 'NONE',  #122 ) ;
#204 = ADVANCED_FACE ( 'NONE', ( #243 ), #232, .T. ) ;
#205 = EDGE_CURVE ( 'NONE', #35, #167, #47, .T. ) ;
#206 = CARTESIAN_POINT ( 'NONE',  ( 20.00000000000000000, 20.00000000000000000, 20.00000000000000000 ) ) ;
#207 = CLOSED_SHELL ( 'NONE', ( #293, #276, #95, #158, #183 ) ) ;
#208 = ORIENTED_EDGE ( 'NONE', *, *, #256, .T. ) ;
#209 = DIRECTION ( 'NONE',  ( -1.000000000000000000, -0.0000000000000000000, -0.0000000000000000000 ) ) ;
#210 = CARTESIAN_POINT ( 'NONE',  ( 0.0000000000000000000, 20.00000000000000000, 0.0000000000000000000 ) ) ;
#211 = AXIS2_PLACEMENT_3D ( 'NONE', #298, #288, #287 ) ;
#212 = ORIENTED_EDGE ( 'NONE', *, *, #264, .T. ) ;
#213 = VECTOR ( 'NONE', #209, 1000.000000000000000 ) ;
#214 = DIRECTION ( 'NONE',  ( 0.0000000000000000000, 0.0000000000000000000, -1.000000000000000000 ) ) ;
#215 = ORIENTED_EDGE ( 'NONE', *, *, #256, .F. ) ;
#216 = CALENDAR_DATE ( 2014, 5, 6 ) ;
#217 = PLANE ( 'NONE',  #281 ) ;
#218 = DIRECTION ( 'NONE',  ( 0.7071067811865474600, 0.7071067811865474600, -0.0000000000000000000 ) ) ;
#219 = CARTESIAN_POINT ( 'NONE',  ( 0.0000000000000000000, 0.0000000000000000000, 0.0000000000000000000 ) ) ;
#220 = LINE ( 'NONE', #163, #191 ) ;
#221 = CARTESIAN_POINT ( 'NONE',  ( 20.00000000000000000, 20.00000000000000000, 0.0000000000000000000 ) ) ;
#222 = CARTESIAN_POINT ( 'NONE',  ( 20.00000000000000000, 20.00000000000000000, 20.00000000000000000 ) ) ;
#223 = ORIENTED_EDGE ( 'NONE', *, *, #237, .F. ) ;
#224 = CARTESIAN_POINT ( 'NONE',  ( 0.0000000000000000000, 0.0000000000000000000, 20.00000000000000000 ) ) ;
#225 = VECTOR ( 'NONE', #263, 1000.000000000000000 ) ;
#226 = FACE_OUTER_BOUND ( 'NONE', #140, .T. ) ;
#227 = DIRECTION ( 'NONE',  ( -1.000000000000000000, 0.0000000000000000000, 0.0000000000000000000 ) ) ;
#228 = DIRECTION ( 'NONE',  ( 0.0000000000000000000, 0.0000000000000000000, -1.000000000000000000 ) ) ;
#229 = LINE ( 'NONE', #121, #134 ) ;
#230 = VECTOR ( 'NONE', #178, 1000.000000000000000 ) ;
#231 = PLANE ( 'NONE',  #275 ) ;
#232 = PLANE ( 'NONE',  #156 ) ;
#233 = VERTEX_POINT ( 'NONE', #224 ) ;
#234 = DIRECTION ( 'NONE',  ( -0.0000000000000000000, -1.000000000000000000, -0.0000000000000000000 ) ) ;
#235 = ORIENTED_EDGE ( 'NONE', *, *, #193, .T. ) ;
#236 = ORIENTED_EDGE ( 'NONE', *, *, #264, .F. ) ;
#237 = EDGE_CURVE ( 'NONE', #167, #297, #150, .T. ) ;
#238 = ORIENTED_EDGE ( 'NONE', *, *, #299, .F. ) ;
#239 = ADVANCED_BREP_SHAPE_REPRESENTATION ( 'step_49871', ( #311, #127, #74 ), #110 ) ;
#240 = CARTESIAN_POINT ( 'NONE',  ( 0.0000000000000000000, 0.0000000000000000000, 20.00000000000000000 ) ) ;
#241 = APPROVAL_PERSON_ORGANIZATION ( #135, #36, #17 ) ;
#242 = APPROVAL_STATUS ( 'not_yet_approved' ) ;
#243 = FACE_OUTER_BOUND ( 'NONE', #30, .T. ) ;
#244 = FACE_OUTER_BOUND ( 'NONE', #315, .T. ) ;
#245 = CARTESIAN_POINT ( 'NONE',  ( 20.00000000000000000, 20.00000000000000000, 20.00000000000000000 ) ) ;
#246 = APPROVAL_ROLE ( '' ) ;
#247 = CARTESIAN_POINT ( 'NONE',  ( 0.0000000000000000000, 0.0000000000000000000, 0.0000000000000000000 ) ) ;
#248 = DIRECTION ( 'NONE',  ( 1.000000000000000000, 0.0000000000000000000, -0.0000000000000000000 ) ) ;
#249 = LINE ( 'NONE', #273, #255 ) ;
#250 = AXIS2_PLACEMENT_3D ( 'NONE', #27, #318, #316 ) ;
#251 = DIRECTION ( 'NONE',  ( 0.0000000000000000000, 0.0000000000000000000, 1.000000000000000000 ) ) ;
#252 = ADVANCED_FACE ( 'NONE', ( #280 ), #203, .F. ) ;
#253 = CALENDAR_DATE ( 2014, 5, 6 ) ;
#254 = CARTESIAN_POINT ( 'NONE',  ( 0.0000000000000000000, 0.0000000000000000000, 0.0000000000000000000 ) ) ;
#255 = VECTOR ( 'NONE', #313, 1000.000000000000000 ) ;
#256 = EDGE_CURVE ( 'NONE', #46, #290, #139, .T. ) ;
#257 = EDGE_LOOP ( 'NONE', ( #19, #14, #147, #83 ) ) ;
#258 = EDGE_CURVE ( 'NONE', #46, #167, #305, .T. ) ;
#259 = APPLICATION_PROTOCOL_DEFINITION ( 'international standard', 'config_control_design', 1994, #282 ) ;
#260 = VERTEX_POINT ( 'NONE', #182 ) ;
#261 = LINE ( 'NONE', #26, #113 ) ;
#262 = DESIGN_CONTEXT ( 'detailed design', #136, 'design' ) ;
#263 = DIRECTION ( 'NONE',  ( -0.0000000000000000000, -0.0000000000000000000, -1.000000000000000000 ) ) ;
#264 = EDGE_CURVE ( 'NONE', #290, #297, #102, .T. ) ;
#265 = LOCAL_TIME ( 11, 40, 22.00000000000000000, #272 ) ;
#266 = CARTESIAN_POINT ( 'NONE',  ( 0.0000000000000000000, 0.0000000000000000000, 20.00000000000000000 ) ) ;
#267 = AXIS2_PLACEMENT_3D ( 'NONE', #94, #142, #123 ) ;
#268 = APPROVAL_DATE_TIME ( #292, #4 ) ;
#269 = ORIENTED_EDGE ( 'NONE', *, *, #289, .T. ) ;
#270 = DATE_TIME_ROLE ( 'classification_date' ) ;
#271 = LINE ( 'NONE', #133, #294 ) ;
#272 = COORDINATED_UNIVERSAL_TIME_OFFSET ( 7, 0, .BEHIND. ) ;
#273 = CARTESIAN_POINT ( 'NONE',  ( 20.00000000000000000, 20.00000000000000000, 0.0000000000000000000 ) ) ;
#274 = ORIENTED_EDGE ( 'NONE', *, *, #299, .T. ) ;
#275 = AXIS2_PLACEMENT_3D ( 'NONE', #202, #165, #190 ) ;
#276 = ADVANCED_FACE ( 'NONE', ( #244 ), #151, .F. ) ;
#277 = EDGE_CURVE ( 'NONE', #144, #308, #229, .T. ) ;
#278 = CARTESIAN_POINT ( 'NONE',  ( 20.00000000000000000, 20.00000000000000000, 0.0000000000000000000 ) ) ;
#279 = VERTEX_POINT ( 'NONE', #126 ) ;
#280 = FACE_OUTER_BOUND ( 'NONE', #192, .T. ) ;
#281 = AXIS2_PLACEMENT_3D ( 'NONE', #198, #3, #214 ) ;
#282 = APPLICATION_CONTEXT ( 'configuration controlled 3d designs of mechanical parts and assemblies' ) ;
#283 = PERSON_AND_ORGANIZATION ( #143, #34 ) ;
#284 = DIRECTION ( 'NONE',  ( 0.0000000000000000000, 0.0000000000000000000, 1.000000000000000000 ) ) ;
#285 = SECURITY_CLASSIFICATION_LEVEL ( 'unclassified' ) ;
#286 = PLANE ( 'NONE',  #185 ) ;
#287 = DIRECTION ( 'NONE',  ( 1.000000000000000000, 0.0000000000000000000, -0.0000000000000000000 ) ) ;
#288 = DIRECTION ( 'NONE',  ( 0.0000000000000000000, 0.0000000000000000000, 1.000000000000000000 ) ) ;
#289 = EDGE_CURVE ( 'NONE', #307, #308, #271, .T. ) ;
#290 = VERTEX_POINT ( 'NONE', #116 ) ;
#291 = EDGE_CURVE ( 'NONE', #279, #46, #70, .T. ) ;
#292 = DATE_AND_TIME ( #23, #71 ) ;
#293 = ADVANCED_FACE ( 'NONE', ( #96 ), #99, .F. ) ;
#294 = VECTOR ( 'NONE', #105, 1000.000000000000000 ) ;
#295 = PLANE ( 'NONE',  #211 ) ;
#296 = EDGE_CURVE ( 'NONE', #260, #233, #201, .T. ) ;
#297 = VERTEX_POINT ( 'NONE', #67 ) ;
#298 = CARTESIAN_POINT ( 'NONE',  ( 0.0000000000000000000, 0.0000000000000000000, 20.00000000000000000 ) ) ;
#299 = EDGE_CURVE ( 'NONE', #55, #144, #180, .T. ) ;
#300 = DIRECTION ( 'NONE',  ( 1.000000000000000000, 0.0000000000000000000, 0.0000000000000000000 ) ) ;
#301 = ORIENTED_EDGE ( 'NONE', *, *, #193, .F. ) ;
#302 = CALENDAR_DATE ( 2014, 5, 6 ) ;
#303 = EDGE_CURVE ( 'NONE', #307, #260, #124, .T. ) ;
#304 = APPROVAL_DATE_TIME ( #177, #62 ) ;
#305 = LINE ( 'NONE', #206, #16 ) ;
#306 = APPROVAL_PERSON_ORGANIZATION ( #310, #62, #82 ) ;
#307 = VERTEX_POINT ( 'NONE', #61 ) ;
#308 = VERTEX_POINT ( 'NONE', #41 ) ;
#309 = CARTESIAN_POINT ( 'NONE',  ( 0.0000000000000000000, 0.0000000000000000000, 0.0000000000000000000 ) ) ;
#310 = PERSON_AND_ORGANIZATION ( #143, #34 ) ;
#311 = MANIFOLD_SOLID_BREP ( 'Boss-Extrude1', #89 ) ;
#312 = EDGE_LOOP ( 'NONE', ( #111, #145, #301, #212 ) ) ;
#313 = DIRECTION ( 'NONE',  ( -1.734723475976806800E-016, 1.000000000000000000, -0.0000000000000000000 ) ) ;
#314 = ORIENTED_EDGE ( 'NONE', *, *, #258, .F. ) ;
#315 = EDGE_LOOP ( 'NONE', ( #157, #137, #132, #269 ) ) ;
#316 = DIRECTION ( 'NONE',  ( 0.7071067811865474600, 0.7071067811865474600, 0.0000000000000000000 ) ) ;
#317 = MECHANICAL_CONTEXT ( 'NONE', #282, 'mechanical' ) ;
#318 = DIRECTION ( 'NONE',  ( 0.7071067811865475700, -0.7071067811865475700, 0.0000000000000000000 ) ) ;
#319 = EDGE_CURVE ( 'NONE', #233, #307, #261, .T. ) ;
#320 = ORIENTED_EDGE ( 'NONE', *, *, #237, .T. ) ;
#321 = EDGE_CURVE ( 'NONE', #233, #144, #43, .T. ) ;
ENDSEC;
END-ISO-10303-21;
