ISO-10303-21;
HEADER;
FILE_DESCRIPTION (( 'STEP AP203' ),
    '1' );
FILE_NAME ('Web Model 18465_18471.step',
    '2021-09-13T18:57:25',
    ( '' ),
    ( '' ),
    'SwSTEP 2.0',
    'SolidWorks 2018',
    '' );
FILE_SCHEMA (( 'CONFIG_CONTROL_DESIGN' ));
ENDSEC;

DATA;
#1 = COORDINATED_UNIVERSAL_TIME_OFFSET ( 5, 0, .BEHIND. ) ;
#2 = CC_DESIGN_APPROVAL ( #71, ( #57 ) ) ;
#3 = APPROVAL_ROLE ( '' ) ;
#4 = PERSON_AND_ORGANIZATION ( #64, #24 ) ;
#5 = EDGE_LOOP ( 'NONE', ( #153, #117, #39, #143 ) ) ;
#6 = UNCERTAINTY_MEASURE_WITH_UNIT (LENGTH_MEASURE( 1.000000000000000082E-05 ), #108, 'distance_accuracy_value', 'NONE');
#7 = ORIENTED_EDGE ( 'NONE', *, *, #21, .T. ) ;
#8 = CIRCLE ( 'NONE', #115, 12.50000000000000000 ) ;
#9 = DATE_AND_TIME ( #93, #152 ) ;
#10 = APPROVAL ( #17, 'UNSPECIFIED' ) ;
#11 = AXIS2_PLACEMENT_3D ( 'NONE', #145, #135, #142 ) ;
#12 = EDGE_LOOP ( 'NONE', ( #51, #85, #97, #69 ) ) ;
#13 = CLOSED_SHELL ( 'NONE', ( #140, #130, #60, #173 ) ) ;
#14 = DIRECTION ( 'NONE',  ( 0.000000000000000000, 0.000000000000000000, 1.000000000000000000 ) ) ;
#15 = CARTESIAN_POINT ( 'NONE',  ( -12.50000000000000000, 0.000000000000000000, 0.5000000000000000000 ) ) ;
#16 = DATE_AND_TIME ( #53, #58 ) ;
#17 = APPROVAL_STATUS ( 'not_yet_approved' ) ;
#18 = APPLICATION_PROTOCOL_DEFINITION ( 'international standard', 'config_control_design', 1994, #165 ) ;
#19 = DIRECTION ( 'NONE',  ( -1.000000000000000000, 0.000000000000000000, 0.000000000000000000 ) ) ;
#20 = VERTEX_POINT ( 'NONE', #26 ) ;
#21 = EDGE_CURVE ( 'NONE', #20, #90, #92, .T. ) ;
#22 = DIRECTION ( 'NONE',  ( -0.000000000000000000, -0.000000000000000000, -1.000000000000000000 ) ) ;
#23 = LOCAL_TIME ( 14, 57, 25.00000000000000000, #149 ) ;
#24 = ORGANIZATION ( 'UNSPECIFIED', 'UNSPECIFIED', '' ) ;
#25 = PERSON_AND_ORGANIZATION ( #64, #24 ) ;
#26 = CARTESIAN_POINT ( 'NONE',  ( 12.50000000000000000, 1.530808498934191521E-15, 0.5000000000000000000 ) ) ;
#27 = AXIS2_PLACEMENT_3D ( 'NONE', #162, #121, #104 ) ;
#28 = CALENDAR_DATE ( 2021, 13, 9 ) ;
#29 = EDGE_CURVE ( 'NONE', #100, #163, #8, .T. ) ;
#30 = DIRECTION ( 'NONE',  ( 1.000000000000000000, 0.000000000000000000, -0.000000000000000000 ) ) ;
#31 = CARTESIAN_POINT ( 'NONE',  ( 12.50000000000000000, 1.530808498934191521E-15, 0.000000000000000000 ) ) ;
#32 = ORIENTED_EDGE ( 'NONE', *, *, #67, .T. ) ;
#33 = MECHANICAL_CONTEXT ( 'NONE', #165, 'mechanical' ) ;
#34 = APPROVAL_STATUS ( 'not_yet_approved' ) ;
#35 = PERSON_AND_ORGANIZATION_ROLE ( 'creator' ) ;
#36 = PERSON_AND_ORGANIZATION ( #64, #24 ) ;
#37 = ORIENTED_EDGE ( 'NONE', *, *, #54, .F. ) ;
#38 = APPROVAL ( #34, 'UNSPECIFIED' ) ;
#39 = ORIENTED_EDGE ( 'NONE', *, *, #102, .T. ) ;
#40 = FACE_OUTER_BOUND ( 'NONE', #126, .T. ) ;
#41 = PERSON_AND_ORGANIZATION ( #64, #24 ) ;
#42 = DIRECTION ( 'NONE',  ( 0.000000000000000000, 0.000000000000000000, 1.000000000000000000 ) ) ;
#43 = APPROVAL_DATE_TIME ( #119, #38 ) ;
#44 = CARTESIAN_POINT ( 'NONE',  ( 12.50000000000000000, 1.530808498934191521E-15, 0.5000000000000000000 ) ) ;
#45 = PERSON_AND_ORGANIZATION ( #64, #24 ) ;
#46 = CC_DESIGN_PERSON_AND_ORGANIZATION_ASSIGNMENT ( #4, #61, ( #111 ) ) ;
#47 = PERSON_AND_ORGANIZATION_ROLE ( 'design_owner' ) ;
#48 =( GEOMETRIC_REPRESENTATION_CONTEXT ( 3 ) GLOBAL_UNCERTAINTY_ASSIGNED_CONTEXT ( ( #6 ) ) GLOBAL_UNIT_ASSIGNED_CONTEXT ( ( #108, #144, #161 ) ) REPRESENTATION_CONTEXT ( 'NONE', 'WORKASPACE' ) );
#49 = COORDINATED_UNIVERSAL_TIME_OFFSET ( 5, 0, .BEHIND. ) ;
#50 = ORIENTED_EDGE ( 'NONE', *, *, #29, .F. ) ;
#51 = ORIENTED_EDGE ( 'NONE', *, *, #21, .F. ) ;
#52 = MANIFOLD_SOLID_BREP ( 'Boss-Extrude1', #13 ) ;
#53 = CALENDAR_DATE ( 2021, 13, 9 ) ;
#54 = EDGE_CURVE ( 'NONE', #163, #100, #171, .T. ) ;
#55 = VECTOR ( 'NONE', #22, 1000.000000000000000 ) ;
#56 = CARTESIAN_POINT ( 'NONE',  ( 0.000000000000000000, 0.000000000000000000, 0.5000000000000000000 ) ) ;
#57 = SECURITY_CLASSIFICATION ( '', '', #151 ) ;
#58 = LOCAL_TIME ( 14, 57, 25.00000000000000000, #101 ) ;
#59 = CC_DESIGN_APPROVAL ( #10, ( #111 ) ) ;
#60 = ADVANCED_FACE ( 'NONE', ( #148 ), #170, .T. ) ;
#61 = PERSON_AND_ORGANIZATION_ROLE ( 'design_supplier' ) ;
#62 = PRODUCT_DEFINITION ( 'UNKNOWN', '', #111, #86 ) ;
#63 = APPROVAL_ROLE ( '' ) ;
#64 = PERSON ( 'UNSPECIFIED', 'UNSPECIFIED', 'UNSPECIFIED', ('UNSPECIFIED'), ('UNSPECIFIED'), ('UNSPECIFIED') ) ;
#65 = APPLICATION_PROTOCOL_DEFINITION ( 'international standard', 'config_control_design', 1994, #164 ) ;
#66 = DATE_AND_TIME ( #28, #169 ) ;
#67 = EDGE_CURVE ( 'NONE', #90, #20, #123, .T. ) ;
#68 = SHAPE_DEFINITION_REPRESENTATION ( #113, #127 ) ;
#69 = ORIENTED_EDGE ( 'NONE', *, *, #102, .F. ) ;
#70 = CC_DESIGN_PERSON_AND_ORGANIZATION_ASSIGNMENT ( #99, #96, ( #57 ) ) ;
#71 = APPROVAL ( #136, 'UNSPECIFIED' ) ;
#72 = CARTESIAN_POINT ( 'NONE',  ( 0.000000000000000000, 0.000000000000000000, 0.5000000000000000000 ) ) ;
#73 = APPROVAL_PERSON_ORGANIZATION ( #167, #38, #63 ) ;
#74 = FACE_OUTER_BOUND ( 'NONE', #5, .T. ) ;
#75 = CC_DESIGN_DATE_AND_TIME_ASSIGNMENT ( #139, #154, ( #62 ) ) ;
#76 = DIRECTION ( 'NONE',  ( 1.000000000000000000, 0.000000000000000000, 0.000000000000000000 ) ) ;
#77 = CARTESIAN_POINT ( 'NONE',  ( 0.000000000000000000, 0.000000000000000000, 0.000000000000000000 ) ) ;
#78 = CARTESIAN_POINT ( 'NONE',  ( -12.50000000000000000, 0.000000000000000000, 0.5000000000000000000 ) ) ;
#79 = AXIS2_PLACEMENT_3D ( 'NONE', #77, #42, #76 ) ;
#80 = DIRECTION ( 'NONE',  ( -0.000000000000000000, -0.000000000000000000, -1.000000000000000000 ) ) ;
#81 = DATE_TIME_ROLE ( 'classification_date' ) ;
#82 = PRODUCT_RELATED_PRODUCT_CATEGORY ( 'detail', '', ( #112 ) ) ;
#83 = CARTESIAN_POINT ( 'NONE',  ( 0.000000000000000000, 0.000000000000000000, 0.000000000000000000 ) ) ;
#84 = APPROVAL_ROLE ( '' ) ;
#85 = ORIENTED_EDGE ( 'NONE', *, *, #95, .T. ) ;
#86 = DESIGN_CONTEXT ( 'detailed design', #164, 'design' ) ;
#87 = CC_DESIGN_DATE_AND_TIME_ASSIGNMENT ( #66, #81, ( #57 ) ) ;
#88 = CC_DESIGN_APPROVAL ( #38, ( #62 ) ) ;
#89 = APPROVAL_DATE_TIME ( #9, #10 ) ;
#90 = VERTEX_POINT ( 'NONE', #15 ) ;
#91 = DIRECTION ( 'NONE',  ( 0.000000000000000000, 0.000000000000000000, 1.000000000000000000 ) ) ;
#92 = CIRCLE ( 'NONE', #157, 12.50000000000000000 ) ;
#93 = CALENDAR_DATE ( 2021, 13, 9 ) ;
#94 = DIRECTION ( 'NONE',  ( -0.000000000000000000, -0.000000000000000000, -1.000000000000000000 ) ) ;
#95 = EDGE_CURVE ( 'NONE', #20, #163, #125, .T. ) ;
#96 = PERSON_AND_ORGANIZATION_ROLE ( 'classification_officer' ) ;
#97 = ORIENTED_EDGE ( 'NONE', *, *, #54, .T. ) ;
#98 = PERSON_AND_ORGANIZATION_ROLE ( 'creator' ) ;
#99 = PERSON_AND_ORGANIZATION ( #64, #24 ) ;
#100 = VERTEX_POINT ( 'NONE', #150 ) ;
#101 = COORDINATED_UNIVERSAL_TIME_OFFSET ( 5, 0, .BEHIND. ) ;
#102 = EDGE_CURVE ( 'NONE', #90, #100, #110, .T. ) ;
#103 = DIRECTION ( 'NONE',  ( 1.000000000000000000, 0.000000000000000000, 0.000000000000000000 ) ) ;
#104 = DIRECTION ( 'NONE',  ( -1.000000000000000000, 0.000000000000000000, 0.000000000000000000 ) ) ;
#105 = AXIS2_PLACEMENT_3D ( 'NONE', #118, #133, #30 ) ;
#106 = DIRECTION ( 'NONE',  ( 1.000000000000000000, 0.000000000000000000, -0.000000000000000000 ) ) ;
#107 = PLANE ( 'NONE',  #166 ) ;
#108 =( LENGTH_UNIT ( ) NAMED_UNIT ( * ) SI_UNIT ( .MILLI., .METRE. ) );
#109 = AXIS2_PLACEMENT_3D ( 'NONE', #56, #14, #132 ) ;
#110 = LINE ( 'NONE', #78, #55 ) ;
#111 = PRODUCT_DEFINITION_FORMATION_WITH_SPECIFIED_SOURCE ( 'ANY', '', #112, .NOT_KNOWN. ) ;
#112 = PRODUCT ( 'Web Model 18465_18471', 'Web Model 18465_18471', '', ( #33 ) ) ;
#113 = PRODUCT_DEFINITION_SHAPE ( 'NONE', 'NONE',  #62 ) ;
#114 = CC_DESIGN_SECURITY_CLASSIFICATION ( #57, ( #111 ) ) ;
#115 = AXIS2_PLACEMENT_3D ( 'NONE', #159, #91, #103 ) ;
#116 = COORDINATED_UNIVERSAL_TIME_OFFSET ( 5, 0, .BEHIND. ) ;
#117 = ORIENTED_EDGE ( 'NONE', *, *, #67, .F. ) ;
#118 = CARTESIAN_POINT ( 'NONE',  ( 0.000000000000000000, 0.000000000000000000, 0.5000000000000000000 ) ) ;
#119 = DATE_AND_TIME ( #158, #172 ) ;
#120 = FACE_OUTER_BOUND ( 'NONE', #12, .T. ) ;
#121 = DIRECTION ( 'NONE',  ( -0.000000000000000000, -0.000000000000000000, -1.000000000000000000 ) ) ;
#122 = DIRECTION ( 'NONE',  ( 0.000000000000000000, 0.000000000000000000, 1.000000000000000000 ) ) ;
#123 = CIRCLE ( 'NONE', #109, 12.50000000000000000 ) ;
#124 = CALENDAR_DATE ( 2021, 13, 9 ) ;
#125 = LINE ( 'NONE', #44, #129 ) ;
#126 = EDGE_LOOP ( 'NONE', ( #50, #37 ) ) ;
#127 = ADVANCED_BREP_SHAPE_REPRESENTATION ( 'Web Model 18465_18471', ( #52, #11 ), #48 ) ;
#128 = PERSON_AND_ORGANIZATION ( #64, #24 ) ;
#129 = VECTOR ( 'NONE', #94, 1000.000000000000000 ) ;
#130 = ADVANCED_FACE ( 'NONE', ( #74 ), #134, .T. ) ;
#131 = CC_DESIGN_PERSON_AND_ORGANIZATION_ASSIGNMENT ( #128, #98, ( #111 ) ) ;
#132 = DIRECTION ( 'NONE',  ( 1.000000000000000000, 0.000000000000000000, 0.000000000000000000 ) ) ;
#133 = DIRECTION ( 'NONE',  ( 0.000000000000000000, 0.000000000000000000, 1.000000000000000000 ) ) ;
#134 = CYLINDRICAL_SURFACE ( 'NONE', #168, 12.50000000000000000 ) ;
#135 = DIRECTION ( 'NONE',  ( 0.000000000000000000, 0.000000000000000000, 1.000000000000000000 ) ) ;
#136 = APPROVAL_STATUS ( 'not_yet_approved' ) ;
#137 = APPROVAL_PERSON_ORGANIZATION ( #25, #71, #3 ) ;
#138 = EDGE_LOOP ( 'NONE', ( #32, #7 ) ) ;
#139 = DATE_AND_TIME ( #124, #23 ) ;
#140 = ADVANCED_FACE ( 'NONE', ( #120 ), #160, .T. ) ;
#141 = APPROVAL_PERSON_ORGANIZATION ( #36, #10, #84 ) ;
#142 = DIRECTION ( 'NONE',  ( 1.000000000000000000, 0.000000000000000000, 0.000000000000000000 ) ) ;
#143 = ORIENTED_EDGE ( 'NONE', *, *, #29, .T. ) ;
#144 =( NAMED_UNIT ( * ) PLANE_ANGLE_UNIT ( ) SI_UNIT ( $, .RADIAN. ) );
#145 = CARTESIAN_POINT ( 'NONE',  ( 0.000000000000000000, 0.000000000000000000, 0.000000000000000000 ) ) ;
#146 = CC_DESIGN_PERSON_AND_ORGANIZATION_ASSIGNMENT ( #41, #47, ( #112 ) ) ;
#147 = DIRECTION ( 'NONE',  ( 1.000000000000000000, 0.000000000000000000, 0.000000000000000000 ) ) ;
#148 = FACE_OUTER_BOUND ( 'NONE', #138, .T. ) ;
#149 = COORDINATED_UNIVERSAL_TIME_OFFSET ( 5, 0, .BEHIND. ) ;
#150 = CARTESIAN_POINT ( 'NONE',  ( -12.50000000000000000, 0.000000000000000000, 0.000000000000000000 ) ) ;
#151 = SECURITY_CLASSIFICATION_LEVEL ( 'unclassified' ) ;
#152 = LOCAL_TIME ( 14, 57, 25.00000000000000000, #49 ) ;
#153 = ORIENTED_EDGE ( 'NONE', *, *, #95, .F. ) ;
#154 = DATE_TIME_ROLE ( 'creation_date' ) ;
#155 = CARTESIAN_POINT ( 'NONE',  ( 0.000000000000000000, 0.000000000000000000, 0.5000000000000000000 ) ) ;
#156 = APPROVAL_DATE_TIME ( #16, #71 ) ;
#157 = AXIS2_PLACEMENT_3D ( 'NONE', #72, #174, #147 ) ;
#158 = CALENDAR_DATE ( 2021, 13, 9 ) ;
#159 = CARTESIAN_POINT ( 'NONE',  ( 0.000000000000000000, 0.000000000000000000, 0.000000000000000000 ) ) ;
#160 = CYLINDRICAL_SURFACE ( 'NONE', #27, 12.50000000000000000 ) ;
#161 =( NAMED_UNIT ( * ) SI_UNIT ( $, .STERADIAN. ) SOLID_ANGLE_UNIT ( ) );
#162 = CARTESIAN_POINT ( 'NONE',  ( 0.000000000000000000, 0.000000000000000000, 0.5000000000000000000 ) ) ;
#163 = VERTEX_POINT ( 'NONE', #31 ) ;
#164 = APPLICATION_CONTEXT ( 'configuration controlled 3d designs of mechanical parts and assemblies' ) ;
#165 = APPLICATION_CONTEXT ( 'configuration controlled 3d designs of mechanical parts and assemblies' ) ;
#166 = AXIS2_PLACEMENT_3D ( 'NONE', #83, #122, #106 ) ;
#167 = PERSON_AND_ORGANIZATION ( #64, #24 ) ;
#168 = AXIS2_PLACEMENT_3D ( 'NONE', #155, #80, #19 ) ;
#169 = LOCAL_TIME ( 14, 57, 25.00000000000000000, #116 ) ;
#170 = PLANE ( 'NONE',  #105 ) ;
#171 = CIRCLE ( 'NONE', #79, 12.50000000000000000 ) ;
#172 = LOCAL_TIME ( 14, 57, 25.00000000000000000, #1 ) ;
#173 = ADVANCED_FACE ( 'NONE', ( #40 ), #107, .F. ) ;
#174 = DIRECTION ( 'NONE',  ( 0.000000000000000000, 0.000000000000000000, 1.000000000000000000 ) ) ;
#175 = CC_DESIGN_PERSON_AND_ORGANIZATION_ASSIGNMENT ( #45, #35, ( #62 ) ) ;
ENDSEC;
END-ISO-10303-21;
