ISO-10303-21;
HEADER;
FILE_DESCRIPTION (( 'STEP AP203' ),
    '1' );
FILE_NAME ('Web Model 66195.STEP',
    '2017-01-31T19:35:57',
    ( '' ),
    ( '' ),
    'SwSTEP 2.0',
    'SolidWorks 2016',
    '' );
FILE_SCHEMA (( 'CONFIG_CONTROL_DESIGN' ));
ENDSEC;

DATA;
#1 = DATE_AND_TIME ( #95, #10 ) ;
#2 = DIRECTION ( 'NONE',  ( 1.000000000000000000, 0.0000000000000000000, 0.0000000000000000000 ) ) ;
#3 = DIRECTION ( 'NONE',  ( 1.000000000000000000, 0.0000000000000000000, 0.0000000000000000000 ) ) ;
#4 = CIRCLE ( 'NONE', #33, 10.00000000000000000 ) ;
#5 = CARTESIAN_POINT ( 'NONE',  ( 0.0000000000000000000, 0.0000000000000000000, 0.0000000000000000000 ) ) ;
#6 = DIRECTION ( 'NONE',  ( -0.0000000000000000000, -0.0000000000000000000, -1.000000000000000000 ) ) ;
#7 =( LENGTH_UNIT ( ) NAMED_UNIT ( * ) SI_UNIT ( .MILLI., .METRE. ) );
#8 = APPROVAL_STATUS ( 'not_yet_approved' ) ;
#9 = CIRCLE ( 'NONE', #159, 10.00000000000000000 ) ;
#10 = LOCAL_TIME ( 14, 35, 57.00000000000000000, #53 ) ;
#11 = EDGE_CURVE ( 'NONE', #148, #124, #9, .T. ) ;
#12 = ORIENTED_EDGE ( 'NONE', *, *, #174, .T. ) ;
#13 = PLANE ( 'NONE',  #36 ) ;
#14 = APPROVAL_PERSON_ORGANIZATION ( #151, #123, #109 ) ;
#15 = DIRECTION ( 'NONE',  ( 0.0000000000000000000, 0.0000000000000000000, 1.000000000000000000 ) ) ;
#16 = DIRECTION ( 'NONE',  ( -1.000000000000000000, 0.0000000000000000000, 0.0000000000000000000 ) ) ;
#17 = DIRECTION ( 'NONE',  ( -0.0000000000000000000, -0.0000000000000000000, -1.000000000000000000 ) ) ;
#18 = CC_DESIGN_DATE_AND_TIME_ASSIGNMENT ( #1, #65, ( #82 ) ) ;
#19 = SHAPE_DEFINITION_REPRESENTATION ( #103, #97 ) ;
#20 = CIRCLE ( 'NONE', #41, 10.00000000000000000 ) ;
#21 = PRODUCT ( 'Web Model 66195', 'Web Model 66195', '', ( #92 ) ) ;
#22 = LOCAL_TIME ( 14, 35, 57.00000000000000000, #173 ) ;
#23 = MANIFOLD_SOLID_BREP ( 'Extrude1', #71 ) ;
#24 = LINE ( 'NONE', #60, #101 ) ;
#25 = EDGE_LOOP ( 'NONE', ( #31, #137, #138, #45 ) ) ;
#26 = CC_DESIGN_PERSON_AND_ORGANIZATION_ASSIGNMENT ( #63, #171, ( #156 ) ) ;
#27 = ORIENTED_EDGE ( 'NONE', *, *, #162, .F. ) ;
#28 =( NAMED_UNIT ( * ) SI_UNIT ( $, .STERADIAN. ) SOLID_ANGLE_UNIT ( ) );
#29 = CARTESIAN_POINT ( 'NONE',  ( 0.0000000000000000000, 0.0000000000000000000, 0.2000000000000000100 ) ) ;
#30 = PERSON_AND_ORGANIZATION ( #141, #80 ) ;
#31 = ORIENTED_EDGE ( 'NONE', *, *, #100, .F. ) ;
#32 = CARTESIAN_POINT ( 'NONE',  ( -10.00000000000000000, 0.0000000000000000000, 0.2000000000000000100 ) ) ;
#33 = AXIS2_PLACEMENT_3D ( 'NONE', #89, #90, #74 ) ;
#34 = APPROVAL_DATE_TIME ( #108, #62 ) ;
#35 = APPROVAL_STATUS ( 'not_yet_approved' ) ;
#36 = AXIS2_PLACEMENT_3D ( 'NONE', #102, #140, #167 ) ;
#37 = APPROVAL_DATE_TIME ( #76, #77 ) ;
#38 = CC_DESIGN_DATE_AND_TIME_ASSIGNMENT ( #136, #50, ( #156 ) ) ;
#39 = PERSON_AND_ORGANIZATION ( #141, #80 ) ;
#40 = ORIENTED_EDGE ( 'NONE', *, *, #11, .F. ) ;
#41 = AXIS2_PLACEMENT_3D ( 'NONE', #73, #58, #153 ) ;
#42 = FACE_OUTER_BOUND ( 'NONE', #81, .T. ) ;
#43 = CARTESIAN_POINT ( 'NONE',  ( 10.00000000000000000, 1.224646799147353300E-015, 0.2000000000000000100 ) ) ;
#44 = CARTESIAN_POINT ( 'NONE',  ( -10.00000000000000000, 0.0000000000000000000, 0.0000000000000000000 ) ) ;
#45 = ORIENTED_EDGE ( 'NONE', *, *, #174, .F. ) ;
#46 = CARTESIAN_POINT ( 'NONE',  ( 0.0000000000000000000, 0.0000000000000000000, 0.2000000000000000100 ) ) ;
#47 = CARTESIAN_POINT ( 'NONE',  ( 0.0000000000000000000, 0.0000000000000000000, 0.0000000000000000000 ) ) ;
#48 = APPLICATION_CONTEXT ( 'configuration controlled 3d designs of mechanical parts and assemblies' ) ;
#49 = FACE_OUTER_BOUND ( 'NONE', #175, .T. ) ;
#50 = DATE_TIME_ROLE ( 'classification_date' ) ;
#51 = APPROVAL_STATUS ( 'not_yet_approved' ) ;
#52 = CALENDAR_DATE ( 2017, 31, 1 ) ;
#53 = COORDINATED_UNIVERSAL_TIME_OFFSET ( 5, 0, .BEHIND. ) ;
#54 = ORIENTED_EDGE ( 'NONE', *, *, #100, .T. ) ;
#55 = CALENDAR_DATE ( 2017, 31, 1 ) ;
#56 = DATE_AND_TIME ( #120, #142 ) ;
#57 = DIRECTION ( 'NONE',  ( 0.0000000000000000000, 0.0000000000000000000, 1.000000000000000000 ) ) ;
#58 = DIRECTION ( 'NONE',  ( 0.0000000000000000000, 0.0000000000000000000, 1.000000000000000000 ) ) ;
#59 = CC_DESIGN_PERSON_AND_ORGANIZATION_ASSIGNMENT ( #39, #172, ( #21 ) ) ;
#60 = CARTESIAN_POINT ( 'NONE',  ( -10.00000000000000000, 0.0000000000000000000, 0.2000000000000000100 ) ) ;
#61 = VERTEX_POINT ( 'NONE', #130 ) ;
#62 = APPROVAL ( #51, 'UNSPECIFIED' ) ;
#63 = PERSON_AND_ORGANIZATION ( #141, #80 ) ;
#64 = DESIGN_CONTEXT ( 'detailed design', #48, 'design' ) ;
#65 = DATE_TIME_ROLE ( 'creation_date' ) ;
#66 = CYLINDRICAL_SURFACE ( 'NONE', #129, 10.00000000000000000 ) ;
#67 = ADVANCED_FACE ( 'NONE', ( #49 ), #13, .T. ) ;
#68 = EDGE_CURVE ( 'NONE', #69, #61, #20, .T. ) ;
#69 = VERTEX_POINT ( 'NONE', #44 ) ;
#70 = PERSON_AND_ORGANIZATION ( #141, #80 ) ;
#71 = CLOSED_SHELL ( 'NONE', ( #150, #135, #67, #112 ) ) ;
#72 = FACE_OUTER_BOUND ( 'NONE', #25, .T. ) ;
#73 = CARTESIAN_POINT ( 'NONE',  ( 0.0000000000000000000, 0.0000000000000000000, 0.0000000000000000000 ) ) ;
#74 = DIRECTION ( 'NONE',  ( 1.000000000000000000, 0.0000000000000000000, 0.0000000000000000000 ) ) ;
#75 = DIRECTION ( 'NONE',  ( 1.000000000000000000, 0.0000000000000000000, -0.0000000000000000000 ) ) ;
#76 = DATE_AND_TIME ( #52, #113 ) ;
#77 = APPROVAL ( #8, 'UNSPECIFIED' ) ;
#78 = PERSON_AND_ORGANIZATION_ROLE ( 'creator' ) ;
#79 = APPLICATION_CONTEXT ( 'configuration controlled 3d designs of mechanical parts and assemblies' ) ;
#80 = ORGANIZATION ( 'UNSPECIFIED', 'UNSPECIFIED', '' ) ;
#81 = EDGE_LOOP ( 'NONE', ( #115, #40, #12, #163 ) ) ;
#82 = PRODUCT_DEFINITION ( 'UNKNOWN', '', #111, #64 ) ;
#83 = AXIS2_PLACEMENT_3D ( 'NONE', #154, #166, #2 ) ;
#84 = CYLINDRICAL_SURFACE ( 'NONE', #145, 10.00000000000000000 ) ;
#85 = ORIENTED_EDGE ( 'NONE', *, *, #11, .T. ) ;
#86 = LINE ( 'NONE', #43, #114 ) ;
#87 = EDGE_CURVE ( 'NONE', #124, #61, #86, .T. ) ;
#88 = DIRECTION ( 'NONE',  ( -0.0000000000000000000, -0.0000000000000000000, -1.000000000000000000 ) ) ;
#89 = CARTESIAN_POINT ( 'NONE',  ( 0.0000000000000000000, 0.0000000000000000000, 0.2000000000000000100 ) ) ;
#90 = DIRECTION ( 'NONE',  ( 0.0000000000000000000, 0.0000000000000000000, 1.000000000000000000 ) ) ;
#91 = AXIS2_PLACEMENT_3D ( 'NONE', #5, #15, #75 ) ;
#92 = MECHANICAL_CONTEXT ( 'NONE', #79, 'mechanical' ) ;
#93 = LOCAL_TIME ( 14, 35, 57.00000000000000000, #131 ) ;
#94 = PERSON_AND_ORGANIZATION_ROLE ( 'creator' ) ;
#95 = CALENDAR_DATE ( 2017, 31, 1 ) ;
#96 = CC_DESIGN_SECURITY_CLASSIFICATION ( #156, ( #111 ) ) ;
#97 = ADVANCED_BREP_SHAPE_REPRESENTATION ( 'Web Model 66195', ( #23, #164 ), #107 ) ;
#98 = CC_DESIGN_APPROVAL ( #77, ( #82 ) ) ;
#99 = APPROVAL_PERSON_ORGANIZATION ( #128, #77, #155 ) ;
#100 = EDGE_CURVE ( 'NONE', #124, #148, #4, .T. ) ;
#101 = VECTOR ( 'NONE', #17, 1000.000000000000000 ) ;
#102 = CARTESIAN_POINT ( 'NONE',  ( 0.0000000000000000000, 0.0000000000000000000, 0.2000000000000000100 ) ) ;
#103 = PRODUCT_DEFINITION_SHAPE ( 'NONE', 'NONE',  #82 ) ;
#104 = PLANE ( 'NONE',  #91 ) ;
#105 = APPROVAL_PERSON_ORGANIZATION ( #161, #62, #169 ) ;
#106 = DIRECTION ( 'NONE',  ( 0.0000000000000000000, 0.0000000000000000000, 1.000000000000000000 ) ) ;
#107 =( GEOMETRIC_REPRESENTATION_CONTEXT ( 3 ) GLOBAL_UNCERTAINTY_ASSIGNED_CONTEXT ( ( #170 ) ) GLOBAL_UNIT_ASSIGNED_CONTEXT ( ( #7, #139, #28 ) ) REPRESENTATION_CONTEXT ( 'NONE', 'WORKASPACE' ) );
#108 = DATE_AND_TIME ( #55, #93 ) ;
#109 = APPROVAL_ROLE ( '' ) ;
#110 = APPROVAL_DATE_TIME ( #56, #123 ) ;
#111 = PRODUCT_DEFINITION_FORMATION_WITH_SPECIFIED_SOURCE ( 'ANY', '', #21, .NOT_KNOWN. ) ;
#112 = ADVANCED_FACE ( 'NONE', ( #126 ), #104, .F. ) ;
#113 = LOCAL_TIME ( 14, 35, 57.00000000000000000, #125 ) ;
#114 = VECTOR ( 'NONE', #116, 1000.000000000000000 ) ;
#115 = ORIENTED_EDGE ( 'NONE', *, *, #87, .F. ) ;
#116 = DIRECTION ( 'NONE',  ( -0.0000000000000000000, -0.0000000000000000000, -1.000000000000000000 ) ) ;
#117 = DIRECTION ( 'NONE',  ( -1.000000000000000000, 0.0000000000000000000, 0.0000000000000000000 ) ) ;
#118 = EDGE_LOOP ( 'NONE', ( #158, #27 ) ) ;
#119 = CARTESIAN_POINT ( 'NONE',  ( 10.00000000000000000, 1.224646799147353300E-015, 0.2000000000000000100 ) ) ;
#120 = CALENDAR_DATE ( 2017, 31, 1 ) ;
#121 = DIRECTION ( 'NONE',  ( 1.000000000000000000, 0.0000000000000000000, 0.0000000000000000000 ) ) ;
#122 = APPLICATION_PROTOCOL_DEFINITION ( 'international standard', 'config_control_design', 1994, #48 ) ;
#123 = APPROVAL ( #35, 'UNSPECIFIED' ) ;
#124 = VERTEX_POINT ( 'NONE', #119 ) ;
#125 = COORDINATED_UNIVERSAL_TIME_OFFSET ( 5, 0, .BEHIND. ) ;
#126 = FACE_OUTER_BOUND ( 'NONE', #118, .T. ) ;
#127 = CC_DESIGN_APPROVAL ( #123, ( #111 ) ) ;
#128 = PERSON_AND_ORGANIZATION ( #141, #80 ) ;
#129 = AXIS2_PLACEMENT_3D ( 'NONE', #29, #88, #16 ) ;
#130 = CARTESIAN_POINT ( 'NONE',  ( 10.00000000000000000, 1.224646799147353300E-015, 0.0000000000000000000 ) ) ;
#131 = COORDINATED_UNIVERSAL_TIME_OFFSET ( 5, 0, .BEHIND. ) ;
#132 = PERSON_AND_ORGANIZATION ( #141, #80 ) ;
#133 = APPLICATION_PROTOCOL_DEFINITION ( 'international standard', 'config_control_design', 1994, #79 ) ;
#134 = CC_DESIGN_PERSON_AND_ORGANIZATION_ASSIGNMENT ( #70, #94, ( #111 ) ) ;
#135 = ADVANCED_FACE ( 'NONE', ( #42 ), #66, .T. ) ;
#136 = DATE_AND_TIME ( #165, #22 ) ;
#137 = ORIENTED_EDGE ( 'NONE', *, *, #87, .T. ) ;
#138 = ORIENTED_EDGE ( 'NONE', *, *, #162, .T. ) ;
#139 =( NAMED_UNIT ( * ) PLANE_ANGLE_UNIT ( ) SI_UNIT ( $, .RADIAN. ) );
#140 = DIRECTION ( 'NONE',  ( 0.0000000000000000000, 0.0000000000000000000, 1.000000000000000000 ) ) ;
#141 = PERSON ( 'UNSPECIFIED', 'UNSPECIFIED', 'UNSPECIFIED', ('UNSPECIFIED'), ('UNSPECIFIED'), ('UNSPECIFIED') ) ;
#142 = LOCAL_TIME ( 14, 35, 57.00000000000000000, #157 ) ;
#143 = CC_DESIGN_PERSON_AND_ORGANIZATION_ASSIGNMENT ( #30, #146, ( #111 ) ) ;
#144 = SECURITY_CLASSIFICATION_LEVEL ( 'unclassified' ) ;
#145 = AXIS2_PLACEMENT_3D ( 'NONE', #168, #6, #117 ) ;
#146 = PERSON_AND_ORGANIZATION_ROLE ( 'design_supplier' ) ;
#147 = CC_DESIGN_PERSON_AND_ORGANIZATION_ASSIGNMENT ( #132, #78, ( #82 ) ) ;
#148 = VERTEX_POINT ( 'NONE', #32 ) ;
#149 = CIRCLE ( 'NONE', #83, 10.00000000000000000 ) ;
#150 = ADVANCED_FACE ( 'NONE', ( #72 ), #84, .T. ) ;
#151 = PERSON_AND_ORGANIZATION ( #141, #80 ) ;
#152 = CC_DESIGN_APPROVAL ( #62, ( #156 ) ) ;
#153 = DIRECTION ( 'NONE',  ( 1.000000000000000000, 0.0000000000000000000, 0.0000000000000000000 ) ) ;
#154 = CARTESIAN_POINT ( 'NONE',  ( 0.0000000000000000000, 0.0000000000000000000, 0.0000000000000000000 ) ) ;
#155 = APPROVAL_ROLE ( '' ) ;
#156 = SECURITY_CLASSIFICATION ( '', '', #144 ) ;
#157 = COORDINATED_UNIVERSAL_TIME_OFFSET ( 5, 0, .BEHIND. ) ;
#158 = ORIENTED_EDGE ( 'NONE', *, *, #68, .F. ) ;
#159 = AXIS2_PLACEMENT_3D ( 'NONE', #46, #57, #3 ) ;
#160 = PRODUCT_RELATED_PRODUCT_CATEGORY ( 'detail', '', ( #21 ) ) ;
#161 = PERSON_AND_ORGANIZATION ( #141, #80 ) ;
#162 = EDGE_CURVE ( 'NONE', #61, #69, #149, .T. ) ;
#163 = ORIENTED_EDGE ( 'NONE', *, *, #68, .T. ) ;
#164 = AXIS2_PLACEMENT_3D ( 'NONE', #47, #106, #121 ) ;
#165 = CALENDAR_DATE ( 2017, 31, 1 ) ;
#166 = DIRECTION ( 'NONE',  ( 0.0000000000000000000, 0.0000000000000000000, 1.000000000000000000 ) ) ;
#167 = DIRECTION ( 'NONE',  ( 1.000000000000000000, 0.0000000000000000000, -0.0000000000000000000 ) ) ;
#168 = CARTESIAN_POINT ( 'NONE',  ( 0.0000000000000000000, 0.0000000000000000000, 0.2000000000000000100 ) ) ;
#169 = APPROVAL_ROLE ( '' ) ;
#170 = UNCERTAINTY_MEASURE_WITH_UNIT (LENGTH_MEASURE( 1.000000000000000100E-005 ), #7, 'distance_accuracy_value', 'NONE');
#171 = PERSON_AND_ORGANIZATION_ROLE ( 'classification_officer' ) ;
#172 = PERSON_AND_ORGANIZATION_ROLE ( 'design_owner' ) ;
#173 = COORDINATED_UNIVERSAL_TIME_OFFSET ( 5, 0, .BEHIND. ) ;
#174 = EDGE_CURVE ( 'NONE', #148, #69, #24, .T. ) ;
#175 = EDGE_LOOP ( 'NONE', ( #85, #54 ) ) ;
ENDSEC;
END-ISO-10303-21;
