ISO-10303-21;
HEADER;
FILE_DESCRIPTION (( 'STEP AP203' ),
    '1' );
FILE_NAME ('Web Model 45308_45308.step',
    '2019-01-07T15:46:48',
    ( '' ),
    ( '' ),
    'SwSTEP 2.0',
    'SolidWorks 2016',
    '' );
FILE_SCHEMA (( 'CONFIG_CONTROL_DESIGN' ));
ENDSEC;

DATA;
#1 = APPROVAL_DATE_TIME ( #100, #131 ) ;
#2 = CARTESIAN_POINT ( 'NONE',  ( 5.000000000000000000, 6.123233995736766300E-016, 0.5000000000000000000 ) ) ;
#3 = CARTESIAN_POINT ( 'NONE',  ( 0.0000000000000000000, 0.0000000000000000000, 0.5000000000000000000 ) ) ;
#4 =( NAMED_UNIT ( * ) SI_UNIT ( $, .STERADIAN. ) SOLID_ANGLE_UNIT ( ) );
#5 = DIRECTION ( 'NONE',  ( 0.0000000000000000000, 0.0000000000000000000, 1.000000000000000000 ) ) ;
#6 = CC_DESIGN_PERSON_AND_ORGANIZATION_ASSIGNMENT ( #50, #33, ( #53 ) ) ;
#7 = CARTESIAN_POINT ( 'NONE',  ( 0.0000000000000000000, 0.0000000000000000000, -0.5000000000000000000 ) ) ;
#8 = FACE_OUTER_BOUND ( 'NONE', #32, .T. ) ;
#9 = AXIS2_PLACEMENT_3D ( 'NONE', #66, #44, #56 ) ;
#10 = DATE_AND_TIME ( #158, #83 ) ;
#11 = AXIS2_PLACEMENT_3D ( 'NONE', #55, #169, #27 ) ;
#12 = SHAPE_DEFINITION_REPRESENTATION ( #163, #151 ) ;
#13 = DIRECTION ( 'NONE',  ( 0.0000000000000000000, 0.0000000000000000000, 1.000000000000000000 ) ) ;
#14 = FACE_OUTER_BOUND ( 'NONE', #160, .T. ) ;
#15 = DIRECTION ( 'NONE',  ( -0.0000000000000000000, -0.0000000000000000000, -1.000000000000000000 ) ) ;
#16 = PERSON_AND_ORGANIZATION_ROLE ( 'design_supplier' ) ;
#17 = APPROVAL_PERSON_ORGANIZATION ( #22, #131, #85 ) ;
#18 = APPROVAL_ROLE ( '' ) ;
#19 = ORIENTED_EDGE ( 'NONE', *, *, #118, .T. ) ;
#20 = COORDINATED_UNIVERSAL_TIME_OFFSET ( 5, 0, .BEHIND. ) ;
#21 = AXIS2_PLACEMENT_3D ( 'NONE', #7, #5, #154 ) ;
#22 = PERSON_AND_ORGANIZATION ( #134, #174 ) ;
#23 = DATE_AND_TIME ( #64, #38 ) ;
#24 = AXIS2_PLACEMENT_3D ( 'NONE', #124, #84, #140 ) ;
#25 = VERTEX_POINT ( 'NONE', #164 ) ;
#26 = CC_DESIGN_PERSON_AND_ORGANIZATION_ASSIGNMENT ( #76, #136, ( #121 ) ) ;
#27 = DIRECTION ( 'NONE',  ( 1.000000000000000000, 0.0000000000000000000, 0.0000000000000000000 ) ) ;
#28 = DIRECTION ( 'NONE',  ( 1.000000000000000000, 0.0000000000000000000, 0.0000000000000000000 ) ) ;
#29 = ORIENTED_EDGE ( 'NONE', *, *, #118, .F. ) ;
#30 = PLANE ( 'NONE',  #45 ) ;
#31 = PRODUCT_DEFINITION_FORMATION_WITH_SPECIFIED_SOURCE ( 'ANY', '', #121, .NOT_KNOWN. ) ;
#32 = EDGE_LOOP ( 'NONE', ( #65, #135, #98, #54 ) ) ;
#33 = PERSON_AND_ORGANIZATION_ROLE ( 'creator' ) ;
#34 = PERSON_AND_ORGANIZATION ( #134, #174 ) ;
#35 = EDGE_CURVE ( 'NONE', #105, #107, #88, .T. ) ;
#36 = CC_DESIGN_APPROVAL ( #130, ( #53 ) ) ;
#37 = PERSON_AND_ORGANIZATION ( #134, #174 ) ;
#38 = LOCAL_TIME ( 10, 46, 48.00000000000000000, #74 ) ;
#39 = ADVANCED_FACE ( 'NONE', ( #122 ), #30, .T. ) ;
#40 = DESIGN_CONTEXT ( 'detailed design', #153, 'design' ) ;
#41 = CC_DESIGN_PERSON_AND_ORGANIZATION_ASSIGNMENT ( #34, #156, ( #90 ) ) ;
#42 = MECHANICAL_CONTEXT ( 'NONE', #123, 'mechanical' ) ;
#43 = CARTESIAN_POINT ( 'NONE',  ( 0.0000000000000000000, 0.0000000000000000000, 0.5000000000000000000 ) ) ;
#44 = DIRECTION ( 'NONE',  ( -0.0000000000000000000, -0.0000000000000000000, -1.000000000000000000 ) ) ;
#45 = AXIS2_PLACEMENT_3D ( 'NONE', #138, #99, #60 ) ;
#46 =( NAMED_UNIT ( * ) PLANE_ANGLE_UNIT ( ) SI_UNIT ( $, .RADIAN. ) );
#47 = LINE ( 'NONE', #2, #165 ) ;
#48 = DATE_TIME_ROLE ( 'creation_date' ) ;
#49 = SECURITY_CLASSIFICATION_LEVEL ( 'unclassified' ) ;
#50 = PERSON_AND_ORGANIZATION ( #134, #174 ) ;
#51 = FACE_OUTER_BOUND ( 'NONE', #116, .T. ) ;
#52 = ADVANCED_FACE ( 'NONE', ( #51 ), #81, .F. ) ;
#53 = PRODUCT_DEFINITION ( 'UNKNOWN', '', #31, #40 ) ;
#54 = ORIENTED_EDGE ( 'NONE', *, *, #142, .T. ) ;
#55 = CARTESIAN_POINT ( 'NONE',  ( 0.0000000000000000000, 0.0000000000000000000, 0.0000000000000000000 ) ) ;
#56 = DIRECTION ( 'NONE',  ( -1.000000000000000000, 0.0000000000000000000, 0.0000000000000000000 ) ) ;
#57 = CALENDAR_DATE ( 2019, 7, 1 ) ;
#58 = DIRECTION ( 'NONE',  ( 0.0000000000000000000, 0.0000000000000000000, 1.000000000000000000 ) ) ;
#59 = APPLICATION_PROTOCOL_DEFINITION ( 'international standard', 'config_control_design', 1994, #123 ) ;
#60 = DIRECTION ( 'NONE',  ( 1.000000000000000000, 0.0000000000000000000, -0.0000000000000000000 ) ) ;
#61 = EDGE_CURVE ( 'NONE', #107, #25, #47, .T. ) ;
#62 = CC_DESIGN_APPROVAL ( #108, ( #31 ) ) ;
#63 = ORIENTED_EDGE ( 'NONE', *, *, #61, .T. ) ;
#64 = CALENDAR_DATE ( 2019, 7, 1 ) ;
#65 = ORIENTED_EDGE ( 'NONE', *, *, #61, .F. ) ;
#66 = CARTESIAN_POINT ( 'NONE',  ( 0.0000000000000000000, 0.0000000000000000000, 0.5000000000000000000 ) ) ;
#67 = AXIS2_PLACEMENT_3D ( 'NONE', #125, #58, #82 ) ;
#68 = DIRECTION ( 'NONE',  ( 1.000000000000000000, 0.0000000000000000000, 0.0000000000000000000 ) ) ;
#69 = CALENDAR_DATE ( 2019, 7, 1 ) ;
#70 = CARTESIAN_POINT ( 'NONE',  ( -5.000000000000000000, 0.0000000000000000000, -0.5000000000000000000 ) ) ;
#71 = ORIENTED_EDGE ( 'NONE', *, *, #35, .T. ) ;
#72 = CC_DESIGN_PERSON_AND_ORGANIZATION_ASSIGNMENT ( #37, #89, ( #31 ) ) ;
#73 = LOCAL_TIME ( 10, 46, 48.00000000000000000, #161 ) ;
#74 = COORDINATED_UNIVERSAL_TIME_OFFSET ( 5, 0, .BEHIND. ) ;
#75 = APPLICATION_PROTOCOL_DEFINITION ( 'international standard', 'config_control_design', 1994, #153 ) ;
#76 = PERSON_AND_ORGANIZATION ( #134, #174 ) ;
#77 = LOCAL_TIME ( 10, 46, 48.00000000000000000, #109 ) ;
#78 = CC_DESIGN_PERSON_AND_ORGANIZATION_ASSIGNMENT ( #172, #16, ( #31 ) ) ;
#79 = APPROVAL_PERSON_ORGANIZATION ( #117, #108, #157 ) ;
#80 = CC_DESIGN_SECURITY_CLASSIFICATION ( #90, ( #31 ) ) ;
#81 = PLANE ( 'NONE',  #24 ) ;
#82 = DIRECTION ( 'NONE',  ( 1.000000000000000000, 0.0000000000000000000, 0.0000000000000000000 ) ) ;
#83 = LOCAL_TIME ( 10, 46, 48.00000000000000000, #20 ) ;
#84 = DIRECTION ( 'NONE',  ( 0.0000000000000000000, 0.0000000000000000000, 1.000000000000000000 ) ) ;
#85 = APPROVAL_ROLE ( '' ) ;
#86 = DATE_AND_TIME ( #92, #77 ) ;
#87 = CYLINDRICAL_SURFACE ( 'NONE', #104, 5.000000000000000000 ) ;
#88 = CIRCLE ( 'NONE', #102, 5.000000000000000000 ) ;
#89 = PERSON_AND_ORGANIZATION_ROLE ( 'creator' ) ;
#90 = SECURITY_CLASSIFICATION ( '', '', #49 ) ;
#91 = PRODUCT_RELATED_PRODUCT_CATEGORY ( 'detail', '', ( #121 ) ) ;
#92 = CALENDAR_DATE ( 2019, 7, 1 ) ;
#93 = APPROVAL_DATE_TIME ( #23, #130 ) ;
#94 = AXIS2_PLACEMENT_3D ( 'NONE', #168, #13, #68 ) ;
#95 = COORDINATED_UNIVERSAL_TIME_OFFSET ( 5, 0, .BEHIND. ) ;
#96 = CYLINDRICAL_SURFACE ( 'NONE', #9, 5.000000000000000000 ) ;
#97 = DIRECTION ( 'NONE',  ( 0.0000000000000000000, 0.0000000000000000000, 1.000000000000000000 ) ) ;
#98 = ORIENTED_EDGE ( 'NONE', *, *, #148, .T. ) ;
#99 = DIRECTION ( 'NONE',  ( 0.0000000000000000000, 0.0000000000000000000, 1.000000000000000000 ) ) ;
#100 = DATE_AND_TIME ( #69, #73 ) ;
#101 = APPROVAL_STATUS ( 'not_yet_approved' ) ;
#102 = AXIS2_PLACEMENT_3D ( 'NONE', #3, #97, #28 ) ;
#103 = ORIENTED_EDGE ( 'NONE', *, *, #142, .F. ) ;
#104 = AXIS2_PLACEMENT_3D ( 'NONE', #43, #152, #139 ) ;
#105 = VERTEX_POINT ( 'NONE', #111 ) ;
#106 = ADVANCED_FACE ( 'NONE', ( #14 ), #96, .T. ) ;
#107 = VERTEX_POINT ( 'NONE', #166 ) ;
#108 = APPROVAL ( #101, 'UNSPECIFIED' ) ;
#109 = COORDINATED_UNIVERSAL_TIME_OFFSET ( 5, 0, .BEHIND. ) ;
#110 = ORIENTED_EDGE ( 'NONE', *, *, #143, .F. ) ;
#111 = CARTESIAN_POINT ( 'NONE',  ( -5.000000000000000000, 0.0000000000000000000, 0.5000000000000000000 ) ) ;
#112 = CARTESIAN_POINT ( 'NONE',  ( -5.000000000000000000, 0.0000000000000000000, 0.5000000000000000000 ) ) ;
#113 = LINE ( 'NONE', #112, #149 ) ;
#114 = LOCAL_TIME ( 10, 46, 48.00000000000000000, #95 ) ;
#115 = APPROVAL_PERSON_ORGANIZATION ( #147, #130, #18 ) ;
#116 = EDGE_LOOP ( 'NONE', ( #103, #29 ) ) ;
#117 = PERSON_AND_ORGANIZATION ( #134, #174 ) ;
#118 = EDGE_CURVE ( 'NONE', #25, #171, #144, .T. ) ;
#119 = UNCERTAINTY_MEASURE_WITH_UNIT (LENGTH_MEASURE( 1.000000000000000100E-005 ), #167, 'distance_accuracy_value', 'NONE');
#120 = CIRCLE ( 'NONE', #94, 5.000000000000000000 ) ;
#121 = PRODUCT ( 'Web Model 45308_45308', 'Web Model 45308_45308', '', ( #42 ) ) ;
#122 = FACE_OUTER_BOUND ( 'NONE', #175, .T. ) ;
#123 = APPLICATION_CONTEXT ( 'configuration controlled 3d designs of mechanical parts and assemblies' ) ;
#124 = CARTESIAN_POINT ( 'NONE',  ( 0.0000000000000000000, 0.0000000000000000000, -0.5000000000000000000 ) ) ;
#125 = CARTESIAN_POINT ( 'NONE',  ( 0.0000000000000000000, 0.0000000000000000000, -0.5000000000000000000 ) ) ;
#126 = APPROVAL_DATE_TIME ( #132, #108 ) ;
#127 = CC_DESIGN_DATE_AND_TIME_ASSIGNMENT ( #86, #128, ( #90 ) ) ;
#128 = DATE_TIME_ROLE ( 'classification_date' ) ;
#129 = CLOSED_SHELL ( 'NONE', ( #106, #173, #39, #52 ) ) ;
#130 = APPROVAL ( #170, 'UNSPECIFIED' ) ;
#131 = APPROVAL ( #155, 'UNSPECIFIED' ) ;
#132 = DATE_AND_TIME ( #57, #114 ) ;
#133 = MANIFOLD_SOLID_BREP ( 'Boss-Extrude1', #129 ) ;
#134 = PERSON ( 'UNSPECIFIED', 'UNSPECIFIED', 'UNSPECIFIED', ('UNSPECIFIED'), ('UNSPECIFIED'), ('UNSPECIFIED') ) ;
#135 = ORIENTED_EDGE ( 'NONE', *, *, #35, .F. ) ;
#136 = PERSON_AND_ORGANIZATION_ROLE ( 'design_owner' ) ;
#137 = CC_DESIGN_APPROVAL ( #131, ( #90 ) ) ;
#138 = CARTESIAN_POINT ( 'NONE',  ( 0.0000000000000000000, 0.0000000000000000000, 0.5000000000000000000 ) ) ;
#139 = DIRECTION ( 'NONE',  ( -1.000000000000000000, 0.0000000000000000000, 0.0000000000000000000 ) ) ;
#140 = DIRECTION ( 'NONE',  ( 1.000000000000000000, 0.0000000000000000000, -0.0000000000000000000 ) ) ;
#141 = ORIENTED_EDGE ( 'NONE', *, *, #148, .F. ) ;
#142 = EDGE_CURVE ( 'NONE', #171, #25, #159, .T. ) ;
#143 = EDGE_CURVE ( 'NONE', #107, #105, #120, .T. ) ;
#144 = CIRCLE ( 'NONE', #67, 5.000000000000000000 ) ;
#145 = ORIENTED_EDGE ( 'NONE', *, *, #143, .T. ) ;
#146 =( GEOMETRIC_REPRESENTATION_CONTEXT ( 3 ) GLOBAL_UNCERTAINTY_ASSIGNED_CONTEXT ( ( #119 ) ) GLOBAL_UNIT_ASSIGNED_CONTEXT ( ( #167, #46, #4 ) ) REPRESENTATION_CONTEXT ( 'NONE', 'WORKASPACE' ) );
#147 = PERSON_AND_ORGANIZATION ( #134, #174 ) ;
#148 = EDGE_CURVE ( 'NONE', #105, #171, #113, .T. ) ;
#149 = VECTOR ( 'NONE', #15, 1000.000000000000000 ) ;
#150 = DIRECTION ( 'NONE',  ( -0.0000000000000000000, -0.0000000000000000000, -1.000000000000000000 ) ) ;
#151 = ADVANCED_BREP_SHAPE_REPRESENTATION ( 'Web Model 45308_45308', ( #133, #11 ), #146 ) ;
#152 = DIRECTION ( 'NONE',  ( -0.0000000000000000000, -0.0000000000000000000, -1.000000000000000000 ) ) ;
#153 = APPLICATION_CONTEXT ( 'configuration controlled 3d designs of mechanical parts and assemblies' ) ;
#154 = DIRECTION ( 'NONE',  ( 1.000000000000000000, 0.0000000000000000000, 0.0000000000000000000 ) ) ;
#155 = APPROVAL_STATUS ( 'not_yet_approved' ) ;
#156 = PERSON_AND_ORGANIZATION_ROLE ( 'classification_officer' ) ;
#157 = APPROVAL_ROLE ( '' ) ;
#158 = CALENDAR_DATE ( 2019, 7, 1 ) ;
#159 = CIRCLE ( 'NONE', #21, 5.000000000000000000 ) ;
#160 = EDGE_LOOP ( 'NONE', ( #110, #63, #19, #141 ) ) ;
#161 = COORDINATED_UNIVERSAL_TIME_OFFSET ( 5, 0, .BEHIND. ) ;
#162 = CC_DESIGN_DATE_AND_TIME_ASSIGNMENT ( #10, #48, ( #53 ) ) ;
#163 = PRODUCT_DEFINITION_SHAPE ( 'NONE', 'NONE',  #53 ) ;
#164 = CARTESIAN_POINT ( 'NONE',  ( 5.000000000000000000, 6.123233995736766300E-016, -0.5000000000000000000 ) ) ;
#165 = VECTOR ( 'NONE', #150, 1000.000000000000000 ) ;
#166 = CARTESIAN_POINT ( 'NONE',  ( 5.000000000000000000, 6.123233995736766300E-016, 0.5000000000000000000 ) ) ;
#167 =( LENGTH_UNIT ( ) NAMED_UNIT ( * ) SI_UNIT ( .MILLI., .METRE. ) );
#168 = CARTESIAN_POINT ( 'NONE',  ( 0.0000000000000000000, 0.0000000000000000000, 0.5000000000000000000 ) ) ;
#169 = DIRECTION ( 'NONE',  ( 0.0000000000000000000, 0.0000000000000000000, 1.000000000000000000 ) ) ;
#170 = APPROVAL_STATUS ( 'not_yet_approved' ) ;
#171 = VERTEX_POINT ( 'NONE', #70 ) ;
#172 = PERSON_AND_ORGANIZATION ( #134, #174 ) ;
#173 = ADVANCED_FACE ( 'NONE', ( #8 ), #87, .T. ) ;
#174 = ORGANIZATION ( 'UNSPECIFIED', 'UNSPECIFIED', '' ) ;
#175 = EDGE_LOOP ( 'NONE', ( #71, #145 ) ) ;
ENDSEC;
END-ISO-10303-21;
