ISO-10303-21;
HEADER;
FILE_DESCRIPTION (( 'STEP AP203' ),
    '1' );
FILE_NAME ('Web Model 14964_18342.step',
    '2021-06-28T15:42:17',
    ( '' ),
    ( '' ),
    'SwSTEP 2.0',
    'SolidWorks 2018',
    '' );
FILE_SCHEMA (( 'CONFIG_CONTROL_DESIGN' ));
ENDSEC;

DATA;
#1 = PERSON_AND_ORGANIZATION_ROLE ( 'creator' ) ;
#2 = PERSON_AND_ORGANIZATION ( #91, #69 ) ;
#3 = PERSON_AND_ORGANIZATION_ROLE ( 'design_owner' ) ;
#4 = CC_DESIGN_APPROVAL ( #94, ( #25 ) ) ;
#5 = ORIENTED_EDGE ( 'NONE', *, *, #32, .F. ) ;
#6 = EDGE_CURVE ( 'NONE', #83, #7, #140, .T. ) ;
#7 = VERTEX_POINT ( 'NONE', #63 ) ;
#8 = CC_DESIGN_PERSON_AND_ORGANIZATION_ASSIGNMENT ( #50, #76, ( #110 ) ) ;
#9 = COORDINATED_UNIVERSAL_TIME_OFFSET ( 5, 0, .BEHIND. ) ;
#10 = VERTEX_POINT ( 'NONE', #29 ) ;
#11 = CC_DESIGN_PERSON_AND_ORGANIZATION_ASSIGNMENT ( #171, #139, ( #36 ) ) ;
#12 = ADVANCED_FACE ( 'NONE', ( #129 ), #66, .T. ) ;
#13 = CARTESIAN_POINT ( 'NONE',  ( 0.000000000000000000, 0.000000000000000000, 0.000000000000000000 ) ) ;
#14 = DIRECTION ( 'NONE',  ( -1.000000000000000000, -0.000000000000000000, -0.000000000000000000 ) ) ;
#15 = APPROVAL_PERSON_ORGANIZATION ( #42, #62, #114 ) ;
#16 = EDGE_LOOP ( 'NONE', ( #108, #128, #138, #26 ) ) ;
#17 = COORDINATED_UNIVERSAL_TIME_OFFSET ( 5, 0, .BEHIND. ) ;
#18 = APPROVAL_STATUS ( 'not_yet_approved' ) ;
#19 = FACE_OUTER_BOUND ( 'NONE', #16, .T. ) ;
#20 = AXIS2_PLACEMENT_3D ( 'NONE', #33, #137, #150 ) ;
#21 = CIRCLE ( 'NONE', #122, 12.50000000000000000 ) ;
#22 = CC_DESIGN_PERSON_AND_ORGANIZATION_ASSIGNMENT ( #96, #107, ( #25 ) ) ;
#23 = APPROVAL_DATE_TIME ( #71, #94 ) ;
#24 = CARTESIAN_POINT ( 'NONE',  ( 2.000000000000000000, 0.000000000000000000, 0.000000000000000000 ) ) ;
#25 = PRODUCT_DEFINITION_FORMATION_WITH_SPECIFIED_SOURCE ( 'ANY', '', #127, .NOT_KNOWN. ) ;
#26 = ORIENTED_EDGE ( 'NONE', *, *, #41, .F. ) ;
#27 = DIRECTION ( 'NONE',  ( 0.000000000000000000, 0.000000000000000000, 1.000000000000000000 ) ) ;
#28 = DESIGN_CONTEXT ( 'detailed design', #51, 'design' ) ;
#29 = CARTESIAN_POINT ( 'NONE',  ( -2.000000000000000000, 1.530808498934191521E-15, -12.50000000000000000 ) ) ;
#30 = CC_DESIGN_SECURITY_CLASSIFICATION ( #36, ( #25 ) ) ;
#31 = APPLICATION_PROTOCOL_DEFINITION ( 'international standard', 'config_control_design', 1994, #51 ) ;
#32 = EDGE_CURVE ( 'NONE', #116, #10, #109, .T. ) ;
#33 = CARTESIAN_POINT ( 'NONE',  ( 2.000000000000000000, 0.000000000000000000, 0.000000000000000000 ) ) ;
#34 = ADVANCED_BREP_SHAPE_REPRESENTATION ( 'Web Model 14964_18342', ( #45, #77 ), #143 ) ;
#35 = ORIENTED_EDGE ( 'NONE', *, *, #95, .T. ) ;
#36 = SECURITY_CLASSIFICATION ( '', '', #162 ) ;
#37 = CALENDAR_DATE ( 2021, 28, 6 ) ;
#38 = LINE ( 'NONE', #159, #118 ) ;
#39 = ORIENTED_EDGE ( 'NONE', *, *, #32, .T. ) ;
#40 = AXIS2_PLACEMENT_3D ( 'NONE', #89, #85, #134 ) ;
#41 = EDGE_CURVE ( 'NONE', #83, #116, #38, .T. ) ;
#42 = PERSON_AND_ORGANIZATION ( #91, #69 ) ;
#43 = APPLICATION_PROTOCOL_DEFINITION ( 'international standard', 'config_control_design', 1994, #124 ) ;
#44 = ADVANCED_FACE ( 'NONE', ( #172 ), #174, .T. ) ;
#45 = MANIFOLD_SOLID_BREP ( 'Boss-Extrude1', #52 ) ;
#46 = CARTESIAN_POINT ( 'NONE',  ( 2.000000000000000000, 0.000000000000000000, 0.000000000000000000 ) ) ;
#47 = LOCAL_TIME ( 11, 42, 17.00000000000000000, #9 ) ;
#48 = DIRECTION ( 'NONE',  ( 0.000000000000000000, 0.000000000000000000, -1.000000000000000000 ) ) ;
#49 = PRODUCT_DEFINITION_SHAPE ( 'NONE', 'NONE',  #110 ) ;
#50 = PERSON_AND_ORGANIZATION ( #91, #69 ) ;
#51 = APPLICATION_CONTEXT ( 'configuration controlled 3d designs of mechanical parts and assemblies' ) ;
#52 = CLOSED_SHELL ( 'NONE', ( #130, #12, #44, #169 ) ) ;
#53 = DATE_AND_TIME ( #72, #141 ) ;
#54 = AXIS2_PLACEMENT_3D ( 'NONE', #111, #73, #60 ) ;
#55 = EDGE_CURVE ( 'NONE', #7, #10, #152, .T. ) ;
#56 = SHAPE_DEFINITION_REPRESENTATION ( #49, #34 ) ;
#57 =( NAMED_UNIT ( * ) PLANE_ANGLE_UNIT ( ) SI_UNIT ( $, .RADIAN. ) );
#58 = DATE_AND_TIME ( #82, #88 ) ;
#59 = PERSON_AND_ORGANIZATION ( #91, #69 ) ;
#60 = DIRECTION ( 'NONE',  ( 0.000000000000000000, 0.000000000000000000, -1.000000000000000000 ) ) ;
#61 = AXIS2_PLACEMENT_3D ( 'NONE', #173, #126, #104 ) ;
#62 = APPROVAL ( #18, 'UNSPECIFIED' ) ;
#63 = CARTESIAN_POINT ( 'NONE',  ( 2.000000000000000000, 1.530808498934191521E-15, -12.50000000000000000 ) ) ;
#64 = MECHANICAL_CONTEXT ( 'NONE', #124, 'mechanical' ) ;
#65 = EDGE_CURVE ( 'NONE', #10, #116, #158, .T. ) ;
#66 = CYLINDRICAL_SURFACE ( 'NONE', #20, 12.50000000000000000 ) ;
#67 = CC_DESIGN_PERSON_AND_ORGANIZATION_ASSIGNMENT ( #2, #3, ( #127 ) ) ;
#68 = ORIENTED_EDGE ( 'NONE', *, *, #41, .T. ) ;
#69 = ORGANIZATION ( 'UNSPECIFIED', 'UNSPECIFIED', '' ) ;
#70 =( NAMED_UNIT ( * ) SI_UNIT ( $, .STERADIAN. ) SOLID_ANGLE_UNIT ( ) );
#71 = DATE_AND_TIME ( #37, #154 ) ;
#72 = CALENDAR_DATE ( 2021, 28, 6 ) ;
#73 = DIRECTION ( 'NONE',  ( 1.000000000000000000, 0.000000000000000000, 0.000000000000000000 ) ) ;
#74 = DIRECTION ( 'NONE',  ( 0.000000000000000000, 0.000000000000000000, -1.000000000000000000 ) ) ;
#75 = DATE_TIME_ROLE ( 'creation_date' ) ;
#76 = PERSON_AND_ORGANIZATION_ROLE ( 'creator' ) ;
#77 = AXIS2_PLACEMENT_3D ( 'NONE', #13, #160, #149 ) ;
#78 = APPROVAL_STATUS ( 'not_yet_approved' ) ;
#79 = DATE_AND_TIME ( #97, #47 ) ;
#80 = APPROVAL_PERSON_ORGANIZATION ( #59, #81, #151 ) ;
#81 = APPROVAL ( #78, 'UNSPECIFIED' ) ;
#82 = CALENDAR_DATE ( 2021, 28, 6 ) ;
#83 = VERTEX_POINT ( 'NONE', #144 ) ;
#84 = COORDINATED_UNIVERSAL_TIME_OFFSET ( 5, 0, .BEHIND. ) ;
#85 = DIRECTION ( 'NONE',  ( 1.000000000000000000, 0.000000000000000000, 0.000000000000000000 ) ) ;
#86 = CC_DESIGN_APPROVAL ( #62, ( #36 ) ) ;
#87 = DIRECTION ( 'NONE',  ( 0.000000000000000000, 0.000000000000000000, -1.000000000000000000 ) ) ;
#88 = LOCAL_TIME ( 11, 42, 17.00000000000000000, #84 ) ;
#89 = CARTESIAN_POINT ( 'NONE',  ( -2.000000000000000000, 0.000000000000000000, 0.000000000000000000 ) ) ;
#90 = APPROVAL_STATUS ( 'not_yet_approved' ) ;
#91 = PERSON ( 'UNSPECIFIED', 'UNSPECIFIED', 'UNSPECIFIED', ('UNSPECIFIED'), ('UNSPECIFIED'), ('UNSPECIFIED') ) ;
#92 = CC_DESIGN_DATE_AND_TIME_ASSIGNMENT ( #121, #75, ( #110 ) ) ;
#93 = EDGE_LOOP ( 'NONE', ( #5, #112 ) ) ;
#94 = APPROVAL ( #90, 'UNSPECIFIED' ) ;
#95 = EDGE_CURVE ( 'NONE', #7, #83, #21, .T. ) ;
#96 = PERSON_AND_ORGANIZATION ( #91, #69 ) ;
#97 = CALENDAR_DATE ( 2021, 28, 6 ) ;
#98 = DIRECTION ( 'NONE',  ( -1.000000000000000000, -0.000000000000000000, -0.000000000000000000 ) ) ;
#99 = UNCERTAINTY_MEASURE_WITH_UNIT (LENGTH_MEASURE( 1.000000000000000082E-05 ), #131, 'distance_accuracy_value', 'NONE');
#100 = CARTESIAN_POINT ( 'NONE',  ( 2.000000000000000000, 1.530808498934191521E-15, -12.50000000000000000 ) ) ;
#101 = PERSON_AND_ORGANIZATION ( #91, #69 ) ;
#102 = VECTOR ( 'NONE', #14, 1000.000000000000000 ) ;
#103 = CARTESIAN_POINT ( 'NONE',  ( -2.000000000000000000, 0.000000000000000000, 12.50000000000000000 ) ) ;
#104 = DIRECTION ( 'NONE',  ( 0.000000000000000000, 0.000000000000000000, -1.000000000000000000 ) ) ;
#105 = FACE_OUTER_BOUND ( 'NONE', #93, .T. ) ;
#106 = DATE_TIME_ROLE ( 'classification_date' ) ;
#107 = PERSON_AND_ORGANIZATION_ROLE ( 'design_supplier' ) ;
#108 = ORIENTED_EDGE ( 'NONE', *, *, #95, .F. ) ;
#109 = CIRCLE ( 'NONE', #40, 12.50000000000000000 ) ;
#110 = PRODUCT_DEFINITION ( 'UNKNOWN', '', #25, #28 ) ;
#111 = CARTESIAN_POINT ( 'NONE',  ( -2.000000000000000000, 0.000000000000000000, 0.000000000000000000 ) ) ;
#112 = ORIENTED_EDGE ( 'NONE', *, *, #65, .F. ) ;
#113 = APPROVAL_ROLE ( '' ) ;
#114 = APPROVAL_ROLE ( '' ) ;
#115 = CC_DESIGN_PERSON_AND_ORGANIZATION_ASSIGNMENT ( #101, #1, ( #25 ) ) ;
#116 = VERTEX_POINT ( 'NONE', #103 ) ;
#117 = PERSON_AND_ORGANIZATION ( #91, #69 ) ;
#118 = VECTOR ( 'NONE', #98, 1000.000000000000000 ) ;
#119 = PRODUCT_RELATED_PRODUCT_CATEGORY ( 'detail', '', ( #127 ) ) ;
#120 = APPROVAL_PERSON_ORGANIZATION ( #117, #94, #113 ) ;
#121 = DATE_AND_TIME ( #142, #132 ) ;
#122 = AXIS2_PLACEMENT_3D ( 'NONE', #24, #146, #48 ) ;
#123 = CARTESIAN_POINT ( 'NONE',  ( -2.000000000000000000, 0.000000000000000000, 0.000000000000000000 ) ) ;
#124 = APPLICATION_CONTEXT ( 'configuration controlled 3d designs of mechanical parts and assemblies' ) ;
#125 = COORDINATED_UNIVERSAL_TIME_OFFSET ( 5, 0, .BEHIND. ) ;
#126 = DIRECTION ( 'NONE',  ( 1.000000000000000000, 0.000000000000000000, 0.000000000000000000 ) ) ;
#127 = PRODUCT ( 'Web Model 14964_18342', 'Web Model 14964_18342', '', ( #64 ) ) ;
#128 = ORIENTED_EDGE ( 'NONE', *, *, #55, .T. ) ;
#129 = FACE_OUTER_BOUND ( 'NONE', #145, .T. ) ;
#130 = ADVANCED_FACE ( 'NONE', ( #19 ), #155, .T. ) ;
#131 =( LENGTH_UNIT ( ) NAMED_UNIT ( * ) SI_UNIT ( .MILLI., .METRE. ) );
#132 = LOCAL_TIME ( 11, 42, 17.00000000000000000, #168 ) ;
#133 = DIRECTION ( 'NONE',  ( 1.000000000000000000, 0.000000000000000000, 0.000000000000000000 ) ) ;
#134 = DIRECTION ( 'NONE',  ( 0.000000000000000000, 0.000000000000000000, -1.000000000000000000 ) ) ;
#135 = PLANE ( 'NONE',  #161 ) ;
#136 = ORIENTED_EDGE ( 'NONE', *, *, #6, .F. ) ;
#137 = DIRECTION ( 'NONE',  ( -1.000000000000000000, -0.000000000000000000, -0.000000000000000000 ) ) ;
#138 = ORIENTED_EDGE ( 'NONE', *, *, #65, .T. ) ;
#139 = PERSON_AND_ORGANIZATION_ROLE ( 'classification_officer' ) ;
#140 = CIRCLE ( 'NONE', #164, 12.50000000000000000 ) ;
#141 = LOCAL_TIME ( 11, 42, 17.00000000000000000, #125 ) ;
#142 = CALENDAR_DATE ( 2021, 28, 6 ) ;
#143 =( GEOMETRIC_REPRESENTATION_CONTEXT ( 3 ) GLOBAL_UNCERTAINTY_ASSIGNED_CONTEXT ( ( #99 ) ) GLOBAL_UNIT_ASSIGNED_CONTEXT ( ( #131, #57, #70 ) ) REPRESENTATION_CONTEXT ( 'NONE', 'WORKASPACE' ) );
#144 = CARTESIAN_POINT ( 'NONE',  ( 2.000000000000000000, 0.000000000000000000, 12.50000000000000000 ) ) ;
#145 = EDGE_LOOP ( 'NONE', ( #175, #136, #68, #39 ) ) ;
#146 = DIRECTION ( 'NONE',  ( 1.000000000000000000, 0.000000000000000000, 0.000000000000000000 ) ) ;
#147 = DIRECTION ( 'NONE',  ( 1.000000000000000000, 0.000000000000000000, 0.000000000000000000 ) ) ;
#148 = CC_DESIGN_APPROVAL ( #81, ( #110 ) ) ;
#149 = DIRECTION ( 'NONE',  ( 1.000000000000000000, 0.000000000000000000, 0.000000000000000000 ) ) ;
#150 = DIRECTION ( 'NONE',  ( 0.000000000000000000, 0.000000000000000000, 1.000000000000000000 ) ) ;
#151 = APPROVAL_ROLE ( '' ) ;
#152 = LINE ( 'NONE', #100, #102 ) ;
#153 = AXIS2_PLACEMENT_3D ( 'NONE', #170, #157, #27 ) ;
#154 = LOCAL_TIME ( 11, 42, 17.00000000000000000, #17 ) ;
#155 = CYLINDRICAL_SURFACE ( 'NONE', #153, 12.50000000000000000 ) ;
#156 = CC_DESIGN_DATE_AND_TIME_ASSIGNMENT ( #58, #106, ( #36 ) ) ;
#157 = DIRECTION ( 'NONE',  ( -1.000000000000000000, -0.000000000000000000, -0.000000000000000000 ) ) ;
#158 = CIRCLE ( 'NONE', #54, 12.50000000000000000 ) ;
#159 = CARTESIAN_POINT ( 'NONE',  ( 2.000000000000000000, 0.000000000000000000, 12.50000000000000000 ) ) ;
#160 = DIRECTION ( 'NONE',  ( 0.000000000000000000, 0.000000000000000000, 1.000000000000000000 ) ) ;
#161 = AXIS2_PLACEMENT_3D ( 'NONE', #123, #147, #74 ) ;
#162 = SECURITY_CLASSIFICATION_LEVEL ( 'unclassified' ) ;
#163 = EDGE_LOOP ( 'NONE', ( #165, #35 ) ) ;
#164 = AXIS2_PLACEMENT_3D ( 'NONE', #46, #133, #87 ) ;
#165 = ORIENTED_EDGE ( 'NONE', *, *, #6, .T. ) ;
#166 = APPROVAL_DATE_TIME ( #79, #62 ) ;
#167 = APPROVAL_DATE_TIME ( #53, #81 ) ;
#168 = COORDINATED_UNIVERSAL_TIME_OFFSET ( 5, 0, .BEHIND. ) ;
#169 = ADVANCED_FACE ( 'NONE', ( #105 ), #135, .F. ) ;
#170 = CARTESIAN_POINT ( 'NONE',  ( 2.000000000000000000, 0.000000000000000000, 0.000000000000000000 ) ) ;
#171 = PERSON_AND_ORGANIZATION ( #91, #69 ) ;
#172 = FACE_OUTER_BOUND ( 'NONE', #163, .T. ) ;
#173 = CARTESIAN_POINT ( 'NONE',  ( 2.000000000000000000, 0.000000000000000000, 0.000000000000000000 ) ) ;
#174 = PLANE ( 'NONE',  #61 ) ;
#175 = ORIENTED_EDGE ( 'NONE', *, *, #55, .F. ) ;
ENDSEC;
END-ISO-10303-21;
