ISO-10303-21;
HEADER;
FILE_DESCRIPTION (( 'STEP AP203' ),
    '1' );
FILE_NAME ('Web Model 19841_19878.step',
    '2022-04-06T15:16:19',
    ( 'WC' ),
    ( 'Windows Central' ),
    'SwSTEP 2.0',
    'SolidWorks 2021',
    '' );
FILE_SCHEMA (( 'CONFIG_CONTROL_DESIGN' ));
ENDSEC;

DATA;
#1 = ORIENTED_EDGE ( 'NONE', *, *, #75, .F. ) ;
#2 = AXIS2_PLACEMENT_3D ( 'NONE', #146, #127, #67 ) ;
#3 = VERTEX_POINT ( 'NONE', #97 ) ;
#4 = CLOSED_SHELL ( 'NONE', ( #18, #108, #57, #27 ) ) ;
#5 = DATE_AND_TIME ( #11, #8 ) ;
#6 = DATE_TIME_ROLE ( 'creation_date' ) ;
#7 = PERSON_AND_ORGANIZATION_ROLE ( 'creator' ) ;
#8 = LOCAL_TIME ( 11, 16, 19.00000000000000000, #24 ) ;
#9 = APPROVAL_ROLE ( '' ) ;
#10 = VERTEX_POINT ( 'NONE', #40 ) ;
#11 = CALENDAR_DATE ( 2022, 6, 4 ) ;
#12 = DIRECTION ( 'NONE',  ( 1.000000000000000000, 0.000000000000000000, 0.000000000000000000 ) ) ;
#13 = DIRECTION ( 'NONE',  ( 0.000000000000000000, 0.000000000000000000, 1.000000000000000000 ) ) ;
#14 = CARTESIAN_POINT ( 'NONE',  ( 0.000000000000000000, 0.000000000000000000, 1.000000000000000000 ) ) ;
#15 = CARTESIAN_POINT ( 'NONE',  ( 0.000000000000000000, 0.000000000000000000, 1.000000000000000000 ) ) ;
#16 = EDGE_LOOP ( 'NONE', ( #149, #130, #119, #56 ) ) ;
#17 = ORGANIZATION ( 'UNSPECIFIED', 'UNSPECIFIED', '' ) ;
#18 = ADVANCED_FACE ( 'NONE', ( #85 ), #144, .T. ) ;
#19 = AXIS2_PLACEMENT_3D ( 'NONE', #94, #28, #26 ) ;
#20 = APPLICATION_CONTEXT ( 'configuration controlled 3d designs of mechanical parts and assemblies' ) ;
#21 = APPROVAL_STATUS ( 'not_yet_approved' ) ;
#22 = APPROVAL_ROLE ( '' ) ;
#23 = PERSON ( 'UNSPECIFIED', 'UNSPECIFIED', 'UNSPECIFIED', ('UNSPECIFIED'), ('UNSPECIFIED'), ('UNSPECIFIED') ) ;
#24 = COORDINATED_UNIVERSAL_TIME_OFFSET ( 5, 0, .BEHIND. ) ;
#25 = APPROVAL ( #120, 'UNSPECIFIED' ) ;
#26 = DIRECTION ( 'NONE',  ( 1.000000000000000000, 0.000000000000000000, -0.000000000000000000 ) ) ;
#27 = ADVANCED_FACE ( 'NONE', ( #93 ), #138, .F. ) ;
#28 = DIRECTION ( 'NONE',  ( 0.000000000000000000, 0.000000000000000000, 1.000000000000000000 ) ) ;
#29 = AXIS2_PLACEMENT_3D ( 'NONE', #15, #175, #65 ) ;
#30 = CC_DESIGN_SECURITY_CLASSIFICATION ( #121, ( #102 ) ) ;
#31 = CARTESIAN_POINT ( 'NONE',  ( 0.000000000000000000, 0.000000000000000000, 1.000000000000000000 ) ) ;
#32 = ORIENTED_EDGE ( 'NONE', *, *, #167, .T. ) ;
#33 = CC_DESIGN_DATE_AND_TIME_ASSIGNMENT ( #5, #6, ( #139 ) ) ;
#34 = MANIFOLD_SOLID_BREP ( 'Boss-Extrude1', #4 ) ;
#35 = CIRCLE ( 'NONE', #105, 25.00000000000000000 ) ;
#36 = PERSON_AND_ORGANIZATION ( #23, #17 ) ;
#37 = COORDINATED_UNIVERSAL_TIME_OFFSET ( 5, 0, .BEHIND. ) ;
#38 = APPROVAL_DATE_TIME ( #155, #158 ) ;
#39 = LINE ( 'NONE', #66, #134 ) ;
#40 = CARTESIAN_POINT ( 'NONE',  ( -25.00000000000000000, 0.000000000000000000, 1.000000000000000000 ) ) ;
#41 = AXIS2_PLACEMENT_3D ( 'NONE', #126, #172, #83 ) ;
#42 = CC_DESIGN_APPROVAL ( #25, ( #102 ) ) ;
#43 = DIRECTION ( 'NONE',  ( 1.000000000000000000, 0.000000000000000000, -0.000000000000000000 ) ) ;
#44 = ORIENTED_EDGE ( 'NONE', *, *, #86, .T. ) ;
#45 = CC_DESIGN_PERSON_AND_ORGANIZATION_ASSIGNMENT ( #131, #7, ( #102 ) ) ;
#46 = APPROVAL_DATE_TIME ( #77, #87 ) ;
#47 = AXIS2_PLACEMENT_3D ( 'NONE', #14, #13, #43 ) ;
#48 = APPROVAL_ROLE ( '' ) ;
#49 = PERSON_AND_ORGANIZATION ( #23, #17 ) ;
#50 = EDGE_CURVE ( 'NONE', #10, #163, #39, .T. ) ;
#51 = CALENDAR_DATE ( 2022, 6, 4 ) ;
#52 = DIRECTION ( 'NONE',  ( 1.000000000000000000, 0.000000000000000000, 0.000000000000000000 ) ) ;
#53 = DIRECTION ( 'NONE',  ( 0.000000000000000000, 0.000000000000000000, 1.000000000000000000 ) ) ;
#54 = DIRECTION ( 'NONE',  ( 0.000000000000000000, 0.000000000000000000, 1.000000000000000000 ) ) ;
#55 = LOCAL_TIME ( 11, 16, 19.00000000000000000, #37 ) ;
#56 = ORIENTED_EDGE ( 'NONE', *, *, #75, .T. ) ;
#57 = ADVANCED_FACE ( 'NONE', ( #135 ), #136, .T. ) ;
#58 = AXIS2_PLACEMENT_3D ( 'NONE', #31, #125, #98 ) ;
#59 = CALENDAR_DATE ( 2022, 6, 4 ) ;
#60 = LOCAL_TIME ( 11, 16, 19.00000000000000000, #118 ) ;
#61 = APPROVAL_STATUS ( 'not_yet_approved' ) ;
#62 = PERSON_AND_ORGANIZATION_ROLE ( 'design_owner' ) ;
#63 = SECURITY_CLASSIFICATION_LEVEL ( 'unclassified' ) ;
#64 = CIRCLE ( 'NONE', #2, 25.00000000000000000 ) ;
#65 = DIRECTION ( 'NONE',  ( 1.000000000000000000, 0.000000000000000000, 0.000000000000000000 ) ) ;
#66 = CARTESIAN_POINT ( 'NONE',  ( -25.00000000000000000, 0.000000000000000000, 1.000000000000000000 ) ) ;
#67 = DIRECTION ( 'NONE',  ( 1.000000000000000000, 0.000000000000000000, 0.000000000000000000 ) ) ;
#68 = CARTESIAN_POINT ( 'NONE',  ( 25.00000000000000000, 3.061616997868383043E-15, 1.000000000000000000 ) ) ;
#69 = APPLICATION_CONTEXT ( 'configuration controlled 3d designs of mechanical parts and assemblies' ) ;
#70 = CC_DESIGN_APPROVAL ( #87, ( #139 ) ) ;
#71 = CC_DESIGN_DATE_AND_TIME_ASSIGNMENT ( #157, #168, ( #121 ) ) ;
#72 = CIRCLE ( 'NONE', #113, 25.00000000000000000 ) ;
#73 = DATE_AND_TIME ( #104, #169 ) ;
#74 = DESIGN_CONTEXT ( 'detailed design', #69, 'design' ) ;
#75 = EDGE_CURVE ( 'NONE', #163, #100, #72, .T. ) ;
#76 =( NAMED_UNIT ( * ) SI_UNIT ( $, .STERADIAN. ) SOLID_ANGLE_UNIT ( ) );
#77 = DATE_AND_TIME ( #59, #162 ) ;
#78 = MECHANICAL_CONTEXT ( 'NONE', #20, 'mechanical' ) ;
#79 = COORDINATED_UNIVERSAL_TIME_OFFSET ( 5, 0, .BEHIND. ) ;
#80 =( NAMED_UNIT ( * ) PLANE_ANGLE_UNIT ( ) SI_UNIT ( $, .RADIAN. ) );
#81 = EDGE_LOOP ( 'NONE', ( #148, #32, #44, #99 ) ) ;
#82 = PRODUCT_DEFINITION_SHAPE ( 'NONE', 'NONE',  #139 ) ;
#83 = DIRECTION ( 'NONE',  ( -1.000000000000000000, 0.000000000000000000, 0.000000000000000000 ) ) ;
#84 = FACE_OUTER_BOUND ( 'NONE', #16, .T. ) ;
#85 = FACE_OUTER_BOUND ( 'NONE', #81, .T. ) ;
#86 = EDGE_CURVE ( 'NONE', #100, #163, #35, .T. ) ;
#87 = APPROVAL ( #61, 'UNSPECIFIED' ) ;
#88 =( GEOMETRIC_REPRESENTATION_CONTEXT ( 3 ) GLOBAL_UNCERTAINTY_ASSIGNED_CONTEXT ( ( #153 ) ) GLOBAL_UNIT_ASSIGNED_CONTEXT ( ( #147, #80, #76 ) ) REPRESENTATION_CONTEXT ( 'NONE', 'WORKASPACE' ) );
#89 = COORDINATED_UNIVERSAL_TIME_OFFSET ( 5, 0, .BEHIND. ) ;
#90 = PERSON_AND_ORGANIZATION ( #23, #17 ) ;
#91 = SHAPE_DEFINITION_REPRESENTATION ( #82, #137 ) ;
#92 = DIRECTION ( 'NONE',  ( 1.000000000000000000, 0.000000000000000000, 0.000000000000000000 ) ) ;
#93 = FACE_OUTER_BOUND ( 'NONE', #173, .T. ) ;
#94 = CARTESIAN_POINT ( 'NONE',  ( 0.000000000000000000, 0.000000000000000000, 0.000000000000000000 ) ) ;
#95 = DIRECTION ( 'NONE',  ( -0.000000000000000000, -0.000000000000000000, -1.000000000000000000 ) ) ;
#96 = CC_DESIGN_APPROVAL ( #158, ( #121 ) ) ;
#97 = CARTESIAN_POINT ( 'NONE',  ( 25.00000000000000000, 3.061616997868383043E-15, 1.000000000000000000 ) ) ;
#98 = DIRECTION ( 'NONE',  ( -1.000000000000000000, 0.000000000000000000, 0.000000000000000000 ) ) ;
#99 = ORIENTED_EDGE ( 'NONE', *, *, #50, .F. ) ;
#100 = VERTEX_POINT ( 'NONE', #110 ) ;
#101 = EDGE_LOOP ( 'NONE', ( #115, #116 ) ) ;
#102 = PRODUCT_DEFINITION_FORMATION_WITH_SPECIFIED_SOURCE ( 'ANY', '', #161, .NOT_KNOWN. ) ;
#103 = CALENDAR_DATE ( 2022, 6, 4 ) ;
#104 = CALENDAR_DATE ( 2022, 6, 4 ) ;
#105 = AXIS2_PLACEMENT_3D ( 'NONE', #174, #53, #52 ) ;
#106 = PERSON_AND_ORGANIZATION_ROLE ( 'classification_officer' ) ;
#107 = CARTESIAN_POINT ( 'NONE',  ( -25.00000000000000000, 0.000000000000000000, 0.000000000000000000 ) ) ;
#108 = ADVANCED_FACE ( 'NONE', ( #84 ), #159, .T. ) ;
#109 = CARTESIAN_POINT ( 'NONE',  ( 0.000000000000000000, 0.000000000000000000, 0.000000000000000000 ) ) ;
#110 = CARTESIAN_POINT ( 'NONE',  ( 25.00000000000000000, 3.061616997868383043E-15, 0.000000000000000000 ) ) ;
#111 = APPROVAL_PERSON_ORGANIZATION ( #166, #158, #48 ) ;
#112 = CC_DESIGN_PERSON_AND_ORGANIZATION_ASSIGNMENT ( #152, #122, ( #139 ) ) ;
#113 = AXIS2_PLACEMENT_3D ( 'NONE', #109, #54, #12 ) ;
#114 = APPROVAL_PERSON_ORGANIZATION ( #36, #25, #9 ) ;
#115 = ORIENTED_EDGE ( 'NONE', *, *, #154, .T. ) ;
#116 = ORIENTED_EDGE ( 'NONE', *, *, #117, .T. ) ;
#117 = EDGE_CURVE ( 'NONE', #3, #10, #64, .T. ) ;
#118 = COORDINATED_UNIVERSAL_TIME_OFFSET ( 5, 0, .BEHIND. ) ;
#119 = ORIENTED_EDGE ( 'NONE', *, *, #50, .T. ) ;
#120 = APPROVAL_STATUS ( 'not_yet_approved' ) ;
#121 = SECURITY_CLASSIFICATION ( '', '', #63 ) ;
#122 = PERSON_AND_ORGANIZATION_ROLE ( 'creator' ) ;
#123 = PERSON_AND_ORGANIZATION_ROLE ( 'design_supplier' ) ;
#124 = AXIS2_PLACEMENT_3D ( 'NONE', #156, #141, #92 ) ;
#125 = DIRECTION ( 'NONE',  ( -0.000000000000000000, -0.000000000000000000, -1.000000000000000000 ) ) ;
#126 = CARTESIAN_POINT ( 'NONE',  ( 0.000000000000000000, 0.000000000000000000, 1.000000000000000000 ) ) ;
#127 = DIRECTION ( 'NONE',  ( 0.000000000000000000, 0.000000000000000000, 1.000000000000000000 ) ) ;
#128 = CC_DESIGN_PERSON_AND_ORGANIZATION_ASSIGNMENT ( #170, #123, ( #102 ) ) ;
#129 = APPROVAL_PERSON_ORGANIZATION ( #90, #87, #22 ) ;
#130 = ORIENTED_EDGE ( 'NONE', *, *, #154, .F. ) ;
#131 = PERSON_AND_ORGANIZATION ( #23, #17 ) ;
#132 = APPLICATION_PROTOCOL_DEFINITION ( 'international standard', 'config_control_design', 1994, #20 ) ;
#133 = DIRECTION ( 'NONE',  ( -0.000000000000000000, -0.000000000000000000, -1.000000000000000000 ) ) ;
#134 = VECTOR ( 'NONE', #95, 1000.000000000000000 ) ;
#135 = FACE_OUTER_BOUND ( 'NONE', #101, .T. ) ;
#136 = PLANE ( 'NONE',  #47 ) ;
#137 = ADVANCED_BREP_SHAPE_REPRESENTATION ( 'Web Model 19841_19878', ( #34, #124 ), #88 ) ;
#138 = PLANE ( 'NONE',  #19 ) ;
#139 = PRODUCT_DEFINITION ( 'UNKNOWN', '', #102, #74 ) ;
#140 = APPROVAL_DATE_TIME ( #73, #25 ) ;
#141 = DIRECTION ( 'NONE',  ( 0.000000000000000000, 0.000000000000000000, 1.000000000000000000 ) ) ;
#142 = APPLICATION_PROTOCOL_DEFINITION ( 'international standard', 'config_control_design', 1994, #69 ) ;
#143 = LINE ( 'NONE', #68, #145 ) ;
#144 = CYLINDRICAL_SURFACE ( 'NONE', #41, 25.00000000000000000 ) ;
#145 = VECTOR ( 'NONE', #133, 1000.000000000000000 ) ;
#146 = CARTESIAN_POINT ( 'NONE',  ( 0.000000000000000000, 0.000000000000000000, 1.000000000000000000 ) ) ;
#147 =( LENGTH_UNIT ( ) NAMED_UNIT ( * ) SI_UNIT ( .MILLI., .METRE. ) );
#148 = ORIENTED_EDGE ( 'NONE', *, *, #117, .F. ) ;
#149 = ORIENTED_EDGE ( 'NONE', *, *, #167, .F. ) ;
#150 = CIRCLE ( 'NONE', #29, 25.00000000000000000 ) ;
#151 = PRODUCT_RELATED_PRODUCT_CATEGORY ( 'detail', '', ( #161 ) ) ;
#152 = PERSON_AND_ORGANIZATION ( #23, #17 ) ;
#153 = UNCERTAINTY_MEASURE_WITH_UNIT (LENGTH_MEASURE( 1.000000000000000082E-05 ), #147, 'distance_accuracy_value', 'NONE');
#154 = EDGE_CURVE ( 'NONE', #10, #3, #150, .T. ) ;
#155 = DATE_AND_TIME ( #103, #55 ) ;
#156 = CARTESIAN_POINT ( 'NONE',  ( 0.000000000000000000, 0.000000000000000000, 0.000000000000000000 ) ) ;
#157 = DATE_AND_TIME ( #51, #60 ) ;
#158 = APPROVAL ( #21, 'UNSPECIFIED' ) ;
#159 = CYLINDRICAL_SURFACE ( 'NONE', #58, 25.00000000000000000 ) ;
#160 = CC_DESIGN_PERSON_AND_ORGANIZATION_ASSIGNMENT ( #49, #62, ( #161 ) ) ;
#161 = PRODUCT ( 'Web Model 19841_19878', 'Web Model 19841_19878', '', ( #78 ) ) ;
#162 = LOCAL_TIME ( 11, 16, 19.00000000000000000, #79 ) ;
#163 = VERTEX_POINT ( 'NONE', #107 ) ;
#164 = ORIENTED_EDGE ( 'NONE', *, *, #86, .F. ) ;
#165 = CC_DESIGN_PERSON_AND_ORGANIZATION_ASSIGNMENT ( #171, #106, ( #121 ) ) ;
#166 = PERSON_AND_ORGANIZATION ( #23, #17 ) ;
#167 = EDGE_CURVE ( 'NONE', #3, #100, #143, .T. ) ;
#168 = DATE_TIME_ROLE ( 'classification_date' ) ;
#169 = LOCAL_TIME ( 11, 16, 19.00000000000000000, #89 ) ;
#170 = PERSON_AND_ORGANIZATION ( #23, #17 ) ;
#171 = PERSON_AND_ORGANIZATION ( #23, #17 ) ;
#172 = DIRECTION ( 'NONE',  ( -0.000000000000000000, -0.000000000000000000, -1.000000000000000000 ) ) ;
#173 = EDGE_LOOP ( 'NONE', ( #1, #164 ) ) ;
#174 = CARTESIAN_POINT ( 'NONE',  ( 0.000000000000000000, 0.000000000000000000, 0.000000000000000000 ) ) ;
#175 = DIRECTION ( 'NONE',  ( 0.000000000000000000, 0.000000000000000000, 1.000000000000000000 ) ) ;
ENDSEC;
END-ISO-10303-21;
