ISO-10303-21;
HEADER;
FILE_DESCRIPTION (( 'STEP AP203' ),
    '1' );
FILE_NAME ('24973-E0W.STEP',
    '2012-09-28T16:18:26',
    ( 'Admin' ),
    ( 'Thorlabs, Inc.' ),
    'SwSTEP 2.0',
    'SolidWorks 2011',
    '' );
FILE_SCHEMA (( 'CONFIG_CONTROL_DESIGN' ));
ENDSEC;

DATA;
#1 = DIRECTION ( 'NONE',  ( 1.000000000000000000, 0.0000000000000000000, 0.0000000000000000000 ) ) ;
#2 = DIRECTION ( 'NONE',  ( -0.0000000000000000000, -0.0000000000000000000, 1.000000000000000000 ) ) ;
#3 = CARTESIAN_POINT ( 'NONE',  ( 0.0000000000000000000, 0.0000000000000000000, -0.9585727311330685100 ) ) ;
#4 = FACE_OUTER_BOUND ( 'NONE', #228, .T. ) ;
#5 = DIRECTION ( 'NONE',  ( -1.000000000000000000, 0.0000000000000000000, 0.0000000000000000000 ) ) ;
#6 = CARTESIAN_POINT ( 'NONE',  ( 12.55857864376268800, 0.0000000000000000000, -0.8171513748957554000 ) ) ;
#7 = CARTESIAN_POINT ( 'NONE',  ( -12.55857864376268800, 1.537982313792428500E-015, -0.8171513748957554000 ) ) ;
#8 = AXIS2_PLACEMENT_3D ( 'NONE', #296, #70, #69 ) ;
#9 = CARTESIAN_POINT ( 'NONE',  ( -12.69999999999999900, 1.555301434917138400E-015, -0.9585727311330685100 ) ) ;
#10 = CARTESIAN_POINT ( 'NONE',  ( -12.55857864376269000, 1.537982313792428700E-015, -2.910000000000002800 ) ) ;
#11 = CARTESIAN_POINT ( 'NONE',  ( -12.55857864376269000, 1.546641874354783400E-015, -2.910000000000002800 ) ) ;
#12 = CARTESIAN_POINT ( 'NONE',  ( 12.69999999999999900, 1.555301434917138400E-015, -0.9585727311330685100 ) ) ;
#13 = LINE ( 'NONE', #12, #299 ) ;
#14 = AXIS2_PLACEMENT_3D ( 'NONE', #37, #31, #30 ) ;
#15 = AXIS2_PLACEMENT_3D ( 'NONE', #46, #45, #40 ) ;
#16 = DIRECTION ( 'NONE',  ( 0.7071067811865388000, 0.0000000000000000000, 0.7071067811865561200 ) ) ;
#17 = VECTOR ( 'NONE', #16, 1000.000000000000100 ) ;
#18 = CONICAL_SURFACE ( 'NONE', #15, 12.55857864376269000, 0.7853981633974360700 ) ;
#19 = CIRCLE ( 'NONE', #51, 12.55857864376269000 ) ;
#20 = DIRECTION ( 'NONE',  ( 0.0000000000000000000, 0.0000000000000000000, -1.000000000000000000 ) ) ;
#21 = FACE_OUTER_BOUND ( 'NONE', #153, .T. ) ;
#22 = DIRECTION ( 'NONE',  ( 1.000000000000000000, 0.0000000000000000000, 0.0000000000000000000 ) ) ;
#23 = DIRECTION ( 'NONE',  ( -0.0000000000000000000, -0.0000000000000000000, 1.000000000000000000 ) ) ;
#24 = DIRECTION ( 'NONE',  ( 1.000000000000000000, 0.0000000000000000000, 0.0000000000000000000 ) ) ;
#25 = DIRECTION ( 'NONE',  ( -0.0000000000000000000, -0.0000000000000000000, 1.000000000000000000 ) ) ;
#26 = AXIS2_PLACEMENT_3D ( 'NONE', #3, #2, #1 ) ;
#27 = AXIS2_PLACEMENT_3D ( 'NONE', #50, #20, #5 ) ;
#28 = CONICAL_SURFACE ( 'NONE', #297, 12.55857864376269000, 0.7853981633974360700 ) ;
#29 = DIRECTION ( 'NONE',  ( 1.000000000000000000, 0.0000000000000000000, 0.0000000000000000000 ) ) ;
#30 = DIRECTION ( 'NONE',  ( 1.000000000000000000, 0.0000000000000000000, 0.0000000000000000000 ) ) ;
#31 = DIRECTION ( 'NONE',  ( -0.0000000000000000000, -0.0000000000000000000, 1.000000000000000000 ) ) ;
#32 = FACE_OUTER_BOUND ( 'NONE', #237, .T. ) ;
#33 = CARTESIAN_POINT ( 'NONE',  ( 0.0000000000000000000, 0.0000000000000000000, 35.94000182510855300 ) ) ;
#34 = DIRECTION ( 'NONE',  ( -0.0000000000000000000, -0.0000000000000000000, 1.000000000000000000 ) ) ;
#35 = VECTOR ( 'NONE', #34, 1000.000000000000000 ) ;
#36 = CARTESIAN_POINT ( 'NONE',  ( -12.69999999999999900, 1.555301434917138400E-015, 35.94000182510855300 ) ) ;
#37 = CARTESIAN_POINT ( 'NONE',  ( 0.0000000000000000000, 0.0000000000000000000, -2.768578643762689600 ) ) ;
#38 = AXIS2_PLACEMENT_3D ( 'NONE', #33, #63, #29 ) ;
#39 = CIRCLE ( 'NONE', #14, 12.69999999999999900 ) ;
#40 = DIRECTION ( 'NONE',  ( 1.000000000000000000, 0.0000000000000000000, 0.0000000000000000000 ) ) ;
#41 = LINE ( 'NONE', #36, #35 ) ;
#42 = CARTESIAN_POINT ( 'NONE',  ( 12.69999999999999900, 0.0000000000000000000, -2.768578643762689600 ) ) ;
#43 = FACE_OUTER_BOUND ( 'NONE', #175, .T. ) ;
#44 = CONICAL_SURFACE ( 'NONE', #8, 12.69999999999999900, 0.7853981633974360700 ) ;
#45 = DIRECTION ( 'NONE',  ( -0.0000000000000000000, -0.0000000000000000000, 1.000000000000000000 ) ) ;
#46 = CARTESIAN_POINT ( 'NONE',  ( 0.0000000000000000000, 0.0000000000000000000, -2.910000000000002800 ) ) ;
#47 = DIRECTION ( 'NONE',  ( 1.000000000000000000, 0.0000000000000000000, 0.0000000000000000000 ) ) ;
#48 = DIRECTION ( 'NONE',  ( -0.0000000000000000000, -0.0000000000000000000, 1.000000000000000000 ) ) ;
#49 = CIRCLE ( 'NONE', #26, 12.69999999999999900 ) ;
#50 = CARTESIAN_POINT ( 'NONE',  ( 0.0000000000000000000, 0.0000000000000000000, -0.9585727311330685100 ) ) ;
#51 = AXIS2_PLACEMENT_3D ( 'NONE', #300, #25, #24 ) ;
#52 = CARTESIAN_POINT ( 'NONE',  ( 12.55857864376269000, 0.0000000000000000000, -2.910000000000002800 ) ) ;
#53 = LINE ( 'NONE', #52, #17 ) ;
#54 = CIRCLE ( 'NONE', #295, 12.55857864376269000 ) ;
#55 = CARTESIAN_POINT ( 'NONE',  ( -12.69999999999999900, 1.555301434917138400E-015, -2.768578643762689600 ) ) ;
#56 = DIRECTION ( 'NONE',  ( -0.7071067811865388000, 8.659560562354826900E-017, 0.7071067811865561200 ) ) ;
#57 = DIRECTION ( 'NONE',  ( -0.7071067811865388000, 0.0000000000000000000, -0.7071067811865561200 ) ) ;
#58 = VECTOR ( 'NONE', #57, 1000.000000000000100 ) ;
#59 = CARTESIAN_POINT ( 'NONE',  ( -12.69999999999999900, 0.0000000000000000000, -0.9585727311330685100 ) ) ;
#60 =( LENGTH_UNIT ( ) NAMED_UNIT ( * ) SI_UNIT ( .MILLI., .METRE. ) );
#61 = CARTESIAN_POINT ( 'NONE',  ( 12.69999999999999900, 0.0000000000000000000, -0.9585727311330685100 ) ) ;
#62 = LINE ( 'NONE', #59, #58 ) ;
#63 = DIRECTION ( 'NONE',  ( -0.0000000000000000000, -0.0000000000000000000, 1.000000000000000000 ) ) ;
#64 = DIRECTION ( 'NONE',  ( -0.0000000000000000000, -0.0000000000000000000, 1.000000000000000000 ) ) ;
#65 = VECTOR ( 'NONE', #64, 1000.000000000000000 ) ;
#66 = CARTESIAN_POINT ( 'NONE',  ( 12.69999999999999900, 0.0000000000000000000, 35.94000182510855300 ) ) ;
#67 = LINE ( 'NONE', #66, #65 ) ;
#68 = CYLINDRICAL_SURFACE ( 'NONE', #38, 12.69999999999999900 ) ;
#69 = DIRECTION ( 'NONE',  ( -1.000000000000000000, 0.0000000000000000000, 0.0000000000000000000 ) ) ;
#70 = DIRECTION ( 'NONE',  ( 0.0000000000000000000, 0.0000000000000000000, -1.000000000000000000 ) ) ;
#71 = CONICAL_SURFACE ( 'NONE', #27, 12.69999999999999900, 0.7853981633974360700 ) ;
#72 = DESIGN_CONTEXT ( 'detailed design', #74, 'design' ) ;
#73 = APPLICATION_PROTOCOL_DEFINITION ( 'international standard', 'config_control_design', 1994, #74 ) ;
#74 = APPLICATION_CONTEXT ( 'configuration controlled 3d designs of mechanical parts and assemblies' ) ;
#75 = CC_DESIGN_PERSON_AND_ORGANIZATION_ASSIGNMENT ( #77, #76, ( #80 ) ) ;
#76 = PERSON_AND_ORGANIZATION_ROLE ( 'design_owner' ) ;
#77 = PERSON_AND_ORGANIZATION ( #79, #78 ) ;
#78 = ORGANIZATION ( 'UNSPECIFIED', 'UNSPECIFIED', '' ) ;
#79 = PERSON ( 'UNSPECIFIED', 'UNSPECIFIED', 'UNSPECIFIED', ('UNSPECIFIED'), ('UNSPECIFIED'), ('UNSPECIFIED') ) ;
#80 = PRODUCT ( '24973-E0W', '24973-E0W', '', ( #81 ) ) ;
#81 = MECHANICAL_CONTEXT ( 'NONE', #132, 'mechanical' ) ;
#82 = APPLICATION_PROTOCOL_DEFINITION ( 'international standard', 'config_control_design', 1994, #132 ) ;
#83 = SHAPE_DEFINITION_REPRESENTATION ( #133, #281 ) ;
#84 = CARTESIAN_POINT ( 'NONE',  ( 0.0000000000000000000, 0.0000000000000000000, 0.0000000000000000000 ) ) ;
#85 = APPROVAL_DATE_TIME ( #86, #92 ) ;
#86 = DATE_AND_TIME ( #87, #88 ) ;
#87 = CALENDAR_DATE ( 2012, 28, 9 ) ;
#88 = LOCAL_TIME ( 12, 18, 26.00000000000000000, #89 ) ;
#89 = COORDINATED_UNIVERSAL_TIME_OFFSET ( 5, 0, .BEHIND. ) ;
#90 = APPROVAL_PERSON_ORGANIZATION ( #94, #92, #91 ) ;
#91 = APPROVAL_ROLE ( '' ) ;
#92 = APPROVAL ( #93, 'UNSPECIFIED' ) ;
#93 = APPROVAL_STATUS ( 'not_yet_approved' ) ;
#94 = PERSON_AND_ORGANIZATION ( #79, #78 ) ;
#95 = PRODUCT_DEFINITION_FORMATION_WITH_SPECIFIED_SOURCE ( 'ANY', '', #80, .NOT_KNOWN. ) ;
#96 = CC_DESIGN_DATE_AND_TIME_ASSIGNMENT ( #98, #97, ( #116 ) ) ;
#97 = DATE_TIME_ROLE ( 'creation_date' ) ;
#98 = DATE_AND_TIME ( #99, #100 ) ;
#99 = CALENDAR_DATE ( 2012, 28, 9 ) ;
#100 = LOCAL_TIME ( 12, 18, 26.00000000000000000, #101 ) ;
#101 = COORDINATED_UNIVERSAL_TIME_OFFSET ( 5, 0, .BEHIND. ) ;
#102 = CC_DESIGN_PERSON_AND_ORGANIZATION_ASSIGNMENT ( #104, #103, ( #116 ) ) ;
#103 = PERSON_AND_ORGANIZATION_ROLE ( 'creator' ) ;
#104 = PERSON_AND_ORGANIZATION ( #79, #78 ) ;
#105 = CC_DESIGN_APPROVAL ( #113, ( #116 ) ) ;
#106 = APPROVAL_DATE_TIME ( #107, #113 ) ;
#107 = DATE_AND_TIME ( #108, #109 ) ;
#108 = CALENDAR_DATE ( 2012, 28, 9 ) ;
#109 = LOCAL_TIME ( 12, 18, 26.00000000000000000, #110 ) ;
#110 = COORDINATED_UNIVERSAL_TIME_OFFSET ( 5, 0, .BEHIND. ) ;
#111 = APPROVAL_PERSON_ORGANIZATION ( #115, #113, #112 ) ;
#112 = APPROVAL_ROLE ( '' ) ;
#113 = APPROVAL ( #114, 'UNSPECIFIED' ) ;
#114 = APPROVAL_STATUS ( 'not_yet_approved' ) ;
#115 = PERSON_AND_ORGANIZATION ( #79, #78 ) ;
#116 = PRODUCT_DEFINITION ( 'UNKNOWN', '', #95, #72 ) ;
#117 = DIRECTION ( 'NONE',  ( 0.0000000000000000000, 0.0000000000000000000, 1.000000000000000000 ) ) ;
#118 = CALENDAR_DATE ( 2012, 28, 9 ) ;
#119 = COORDINATED_UNIVERSAL_TIME_OFFSET ( 5, 0, .BEHIND. ) ;
#120 = CC_DESIGN_PERSON_AND_ORGANIZATION_ASSIGNMENT ( #122, #121, ( #123 ) ) ;
#121 = PERSON_AND_ORGANIZATION_ROLE ( 'classification_officer' ) ;
#122 = PERSON_AND_ORGANIZATION ( #79, #78 ) ;
#123 = SECURITY_CLASSIFICATION ( '', '', #124 ) ;
#124 = SECURITY_CLASSIFICATION_LEVEL ( 'unclassified' ) ;
#125 = CC_DESIGN_PERSON_AND_ORGANIZATION_ASSIGNMENT ( #127, #126, ( #95 ) ) ;
#126 = PERSON_AND_ORGANIZATION_ROLE ( 'design_supplier' ) ;
#127 = PERSON_AND_ORGANIZATION ( #79, #78 ) ;
#128 = CC_DESIGN_PERSON_AND_ORGANIZATION_ASSIGNMENT ( #130, #129, ( #95 ) ) ;
#129 = PERSON_AND_ORGANIZATION_ROLE ( 'creator' ) ;
#130 = PERSON_AND_ORGANIZATION ( #79, #78 ) ;
#131 = CC_DESIGN_APPROVAL ( #92, ( #95 ) ) ;
#132 = APPLICATION_CONTEXT ( 'configuration controlled 3d designs of mechanical parts and assemblies' ) ;
#133 = PRODUCT_DEFINITION_SHAPE ( 'NONE', 'NONE',  #116 ) ;
#134 = PRODUCT_RELATED_PRODUCT_CATEGORY ( 'detail', '', ( #80 ) ) ;
#135 = CC_DESIGN_SECURITY_CLASSIFICATION ( #123, ( #95 ) ) ;
#136 = CC_DESIGN_APPROVAL ( #144, ( #123 ) ) ;
#137 = APPROVAL_DATE_TIME ( #138, #144 ) ;
#138 = DATE_AND_TIME ( #139, #140 ) ;
#139 = CALENDAR_DATE ( 2012, 28, 9 ) ;
#140 = LOCAL_TIME ( 12, 18, 26.00000000000000000, #141 ) ;
#141 = COORDINATED_UNIVERSAL_TIME_OFFSET ( 5, 0, .BEHIND. ) ;
#142 = APPROVAL_PERSON_ORGANIZATION ( #146, #144, #143 ) ;
#143 = APPROVAL_ROLE ( '' ) ;
#144 = APPROVAL ( #145, 'UNSPECIFIED' ) ;
#145 = APPROVAL_STATUS ( 'not_yet_approved' ) ;
#146 = PERSON_AND_ORGANIZATION ( #79, #78 ) ;
#147 = CC_DESIGN_DATE_AND_TIME_ASSIGNMENT ( #149, #148, ( #123 ) ) ;
#148 = DATE_TIME_ROLE ( 'classification_date' ) ;
#149 = DATE_AND_TIME ( #118, #150 ) ;
#150 = LOCAL_TIME ( 12, 18, 26.00000000000000000, #119 ) ;
#151 = AXIS2_PLACEMENT_3D ( 'NONE', #84, #117, #152 ) ;
#152 = DIRECTION ( 'NONE',  ( 1.000000000000000000, 0.0000000000000000000, 0.0000000000000000000 ) ) ;
#153 = EDGE_LOOP ( 'NONE', ( #156, #172, #213, #173 ) ) ;
#154 = EDGE_CURVE ( 'NONE', #193, #160, #269, .T. ) ;
#155 = ADVANCED_FACE ( 'NONE', ( #251 ), #252, .T. ) ;
#156 = ORIENTED_EDGE ( 'NONE', *, *, #209, .F. ) ;
#157 = ORIENTED_EDGE ( 'NONE', *, *, #154, .T. ) ;
#158 = EDGE_CURVE ( 'NONE', #210, #212, #260, .T. ) ;
#159 = EDGE_CURVE ( 'NONE', #185, #160, #257, .T. ) ;
#160 = VERTEX_POINT ( 'NONE', #280 ) ;
#161 = ADVANCED_FACE ( 'NONE', ( #277 ), #276, .T. ) ;
#162 = ADVANCED_FACE ( 'NONE', ( #275 ), #279, .F. ) ;
#163 = EDGE_LOOP ( 'NONE', ( #165, #157, #168 ) ) ;
#164 = EDGE_LOOP ( 'NONE', ( #166, #171 ) ) ;
#165 = ORIENTED_EDGE ( 'NONE', *, *, #201, .T. ) ;
#166 = ORIENTED_EDGE ( 'NONE', *, *, #214, .F. ) ;
#167 = EDGE_LOOP ( 'NONE', ( #205, #170, #174 ) ) ;
#168 = ORIENTED_EDGE ( 'NONE', *, *, #159, .F. ) ;
#169 = EDGE_CURVE ( 'NONE', #193, #185, #224, .T. ) ;
#170 = ORIENTED_EDGE ( 'NONE', *, *, #169, .T. ) ;
#171 = ORIENTED_EDGE ( 'NONE', *, *, #158, .F. ) ;
#172 = ORIENTED_EDGE ( 'NONE', *, *, #158, .T. ) ;
#173 = ORIENTED_EDGE ( 'NONE', *, *, #181, .F. ) ;
#174 = ORIENTED_EDGE ( 'NONE', *, *, #159, .T. ) ;
#175 = EDGE_LOOP ( 'NONE', ( #187, #194, #177, #178 ) ) ;
#176 = ADVANCED_FACE ( 'NONE', ( #204 ), #287, .T. ) ;
#177 = ORIENTED_EDGE ( 'NONE', *, *, #239, .T. ) ;
#178 = ORIENTED_EDGE ( 'NONE', *, *, #180, .T. ) ;
#179 = ORIENTED_EDGE ( 'NONE', *, *, #180, .F. ) ;
#180 = EDGE_CURVE ( 'NONE', #220, #241, #250, .T. ) ;
#181 = EDGE_CURVE ( 'NONE', #234, #232, #255, .T. ) ;
#182 = DIRECTION ( 'NONE',  ( 1.000000000000000000, 0.0000000000000000000, 0.0000000000000000000 ) ) ;
#183 = ORIENTED_EDGE ( 'NONE', *, *, #236, .T. ) ;
#184 = ADVANCED_FACE ( 'NONE', ( #43 ), #71, .T. ) ;
#185 = VERTEX_POINT ( 'NONE', #6 ) ;
#186 = CARTESIAN_POINT ( 'NONE',  ( 0.0000000000000000000, 0.0000000000000000000, -0.9585727311330685100 ) ) ;
#187 = ORIENTED_EDGE ( 'NONE', *, *, #196, .F. ) ;
#188 = CLOSED_SHELL ( 'NONE', ( #197, #238, #229, #155, #161, #162, #206, #176, #184 ) ) ;
#189 = ORIENTED_EDGE ( 'NONE', *, *, #231, .F. ) ;
#190 = ORIENTED_EDGE ( 'NONE', *, *, #181, .T. ) ;
#191 = EDGE_LOOP ( 'NONE', ( #189, #190, #183, #179 ) ) ;
#192 = DIRECTION ( 'NONE',  ( 1.000000000000000000, 0.0000000000000000000, 0.0000000000000000000 ) ) ;
#193 = VERTEX_POINT ( 'NONE', #7 ) ;
#194 = ORIENTED_EDGE ( 'NONE', *, *, #169, .F. ) ;
#195 = DIRECTION ( 'NONE',  ( -0.0000000000000000000, -0.0000000000000000000, 1.000000000000000000 ) ) ;
#196 = EDGE_CURVE ( 'NONE', #185, #241, #13, .T. ) ;
#197 = ADVANCED_FACE ( 'NONE', ( #294 ), #44, .T. ) ;
#198 = ORIENTED_EDGE ( 'NONE', *, *, #196, .T. ) ;
#199 = EDGE_LOOP ( 'NONE', ( #203, #198, #223, #240 ) ) ;
#200 = MANIFOLD_SOLID_BREP ( '24973-001-1-solid1', #188 ) ;
#201 = EDGE_CURVE ( 'NONE', #185, #193, #19, .T. ) ;
#202 =( NAMED_UNIT ( * ) PLANE_ANGLE_UNIT ( ) SI_UNIT ( $, .RADIAN. ) );
#203 = ORIENTED_EDGE ( 'NONE', *, *, #201, .F. ) ;
#204 = FACE_OUTER_BOUND ( 'NONE', #191, .T. ) ;
#205 = ORIENTED_EDGE ( 'NONE', *, *, #154, .F. ) ;
#206 = ADVANCED_FACE ( 'NONE', ( #21 ), #28, .T. ) ;
#207 = ORIENTED_EDGE ( 'NONE', *, *, #227, .F. ) ;
#208 = ORIENTED_EDGE ( 'NONE', *, *, #233, .F. ) ;
#209 = EDGE_CURVE ( 'NONE', #210, #234, #291, .T. ) ;
#210 = VERTEX_POINT ( 'NONE', #11 ) ;
#211 = ORIENTED_EDGE ( 'NONE', *, *, #209, .T. ) ;
#212 = VERTEX_POINT ( 'NONE', #292 ) ;
#213 = ORIENTED_EDGE ( 'NONE', *, *, #227, .T. ) ;
#214 = EDGE_CURVE ( 'NONE', #212, #210, #54, .T. ) ;
#215 = ORIENTED_EDGE ( 'NONE', *, *, #231, .T. ) ;
#216 = DIRECTION ( 'NONE',  ( 1.000000000000000000, 0.0000000000000000000, 0.0000000000000000000 ) ) ;
#217 = AXIS2_PLACEMENT_3D ( 'NONE', #242, #225, #216 ) ;
#218 = EDGE_CURVE ( 'NONE', #241, #220, #49, .T. ) ;
#219 = ORIENTED_EDGE ( 'NONE', *, *, #218, .F. ) ;
#220 = VERTEX_POINT ( 'NONE', #9 ) ;
#221 = UNCERTAINTY_MEASURE_WITH_UNIT (LENGTH_MEASURE( 1.000000000000000100E-005 ), #60, 'distance_accuracy_value', 'NONE');
#222 =( NAMED_UNIT ( * ) SI_UNIT ( $, .STERADIAN. ) SOLID_ANGLE_UNIT ( ) );
#223 = ORIENTED_EDGE ( 'NONE', *, *, #218, .T. ) ;
#224 = CIRCLE ( 'NONE', #217, 12.55857864376269000 ) ;
#225 = DIRECTION ( 'NONE',  ( -0.0000000000000000000, -0.0000000000000000000, 1.000000000000000000 ) ) ;
#226 = ORIENTED_EDGE ( 'NONE', *, *, #236, .F. ) ;
#227 = EDGE_CURVE ( 'NONE', #212, #232, #53, .T. ) ;
#228 = EDGE_LOOP ( 'NONE', ( #230, #211, #208, #207 ) ) ;
#229 = ADVANCED_FACE ( 'NONE', ( #4 ), #18, .T. ) ;
#230 = ORIENTED_EDGE ( 'NONE', *, *, #214, .T. ) ;
#231 = EDGE_CURVE ( 'NONE', #234, #220, #41, .T. ) ;
#232 = VERTEX_POINT ( 'NONE', #42 ) ;
#233 = EDGE_CURVE ( 'NONE', #232, #234, #39, .T. ) ;
#234 = VERTEX_POINT ( 'NONE', #55 ) ;
#235 = ORIENTED_EDGE ( 'NONE', *, *, #233, .T. ) ;
#236 = EDGE_CURVE ( 'NONE', #232, #241, #67, .T. ) ;
#237 = EDGE_LOOP ( 'NONE', ( #235, #215, #219, #226 ) ) ;
#238 = ADVANCED_FACE ( 'NONE', ( #32 ), #68, .T. ) ;
#239 = EDGE_CURVE ( 'NONE', #193, #220, #62, .T. ) ;
#240 = ORIENTED_EDGE ( 'NONE', *, *, #239, .F. ) ;
#241 = VERTEX_POINT ( 'NONE', #61 ) ;
#242 = CARTESIAN_POINT ( 'NONE',  ( 0.0000000000000000000, 0.0000000000000000000, -0.8171513748957554000 ) ) ;
#243 = DIRECTION ( 'NONE',  ( 0.0000000000000000000, 0.0000000000000000000, -1.000000000000000000 ) ) ;
#244 = DIRECTION ( 'NONE',  ( 0.0000000000000000000, -1.000000000000000000, 0.0000000000000000000 ) ) ;
#245 = AXIS2_PLACEMENT_3D ( 'NONE', #254, #244, #243 ) ;
#246 = DIRECTION ( 'NONE',  ( 1.000000000000000000, 0.0000000000000000000, 0.0000000000000000000 ) ) ;
#247 = DIRECTION ( 'NONE',  ( 1.000000000000000000, 0.0000000000000000000, 0.0000000000000000000 ) ) ;
#248 = DIRECTION ( 'NONE',  ( -0.0000000000000000000, -0.0000000000000000000, 1.000000000000000000 ) ) ;
#249 = CARTESIAN_POINT ( 'NONE',  ( 0.0000000000000000000, 0.0000000000000000000, -2.910000000000002800 ) ) ;
#250 = CIRCLE ( 'NONE', #258, 12.69999999999999900 ) ;
#251 = FACE_OUTER_BOUND ( 'NONE', #163, .T. ) ;
#252 = TOROIDAL_SURFACE ( 'NONE', #262, 0.006393968114355545700, 23.00000000000000000 ) ;
#253 = CARTESIAN_POINT ( 'NONE',  ( -0.006393968114355545700, 7.830352585095756900E-019, -20.08999911124284700 ) ) ;
#254 = CARTESIAN_POINT ( 'NONE',  ( 0.006393968114355545700, 0.0000000000000000000, -20.08999911124284700 ) ) ;
#255 = CIRCLE ( 'NONE', #263, 12.69999999999999900 ) ;
#256 = DIRECTION ( 'NONE',  ( 1.000000000000000000, 0.0000000000000000000, 0.0000000000000000000 ) ) ;
#257 = CIRCLE ( 'NONE', #245, 23.00000000000000000 ) ;
#258 = AXIS2_PLACEMENT_3D ( 'NONE', #186, #195, #192 ) ;
#259 = AXIS2_PLACEMENT_3D ( 'NONE', #249, #248, #247 ) ;
#260 = CIRCLE ( 'NONE', #259, 12.55857864376269000 ) ;
#261 = DIRECTION ( 'NONE',  ( 1.224646799147353200E-016, 1.000000000000000000, 0.0000000000000000000 ) ) ;
#262 = AXIS2_PLACEMENT_3D ( 'NONE', #268, #267, #256 ) ;
#263 = AXIS2_PLACEMENT_3D ( 'NONE', #266, #265, #246 ) ;
#264 = DIRECTION ( 'NONE',  ( -1.000000000000000000, 1.224646799147353200E-016, 0.0000000000000000000 ) ) ;
#265 = DIRECTION ( 'NONE',  ( -0.0000000000000000000, -0.0000000000000000000, 1.000000000000000000 ) ) ;
#266 = CARTESIAN_POINT ( 'NONE',  ( 0.0000000000000000000, 0.0000000000000000000, -2.768578643762689600 ) ) ;
#267 = DIRECTION ( 'NONE',  ( -0.0000000000000000000, -0.0000000000000000000, 1.000000000000000000 ) ) ;
#268 = CARTESIAN_POINT ( 'NONE',  ( 0.0000000000000000000, 0.0000000000000000000, -20.08999911124284700 ) ) ;
#269 = CIRCLE ( 'NONE', #270, 23.00000000000000000 ) ;
#270 = AXIS2_PLACEMENT_3D ( 'NONE', #253, #261, #264 ) ;
#271 = AXIS2_PLACEMENT_3D ( 'NONE', #283, #282, #288 ) ;
#272 = CARTESIAN_POINT ( 'NONE',  ( 0.0000000000000000000, 0.0000000000000000000, -20.08999911124284700 ) ) ;
#273 = CARTESIAN_POINT ( 'NONE',  ( 0.0000000000000000000, 0.0000000000000000000, -2.909999999999999700 ) ) ;
#274 = AXIS2_PLACEMENT_3D ( 'NONE', #273, #278, #182 ) ;
#275 = FACE_OUTER_BOUND ( 'NONE', #164, .T. ) ;
#276 = TOROIDAL_SURFACE ( 'NONE', #286, 0.006393968114355545700, 23.00000000000000000 ) ;
#277 = FACE_OUTER_BOUND ( 'NONE', #167, .T. ) ;
#278 = DIRECTION ( 'NONE',  ( 0.0000000000000000000, -0.0000000000000000000, 1.000000000000000000 ) ) ;
#279 = PLANE ( 'NONE',  #274 ) ;
#280 = CARTESIAN_POINT ( 'NONE',  ( 0.0000000000000000000, 0.0000000000000000000, 2.909999999999999300 ) ) ;
#281 = ADVANCED_BREP_SHAPE_REPRESENTATION ( '24973-E0W', ( #200, #151 ), #289 ) ;
#282 = DIRECTION ( 'NONE',  ( -0.0000000000000000000, -0.0000000000000000000, 1.000000000000000000 ) ) ;
#283 = CARTESIAN_POINT ( 'NONE',  ( 0.0000000000000000000, 0.0000000000000000000, 35.94000182510855300 ) ) ;
#284 = DIRECTION ( 'NONE',  ( 1.000000000000000000, 0.0000000000000000000, 0.0000000000000000000 ) ) ;
#285 = DIRECTION ( 'NONE',  ( -0.0000000000000000000, -0.0000000000000000000, 1.000000000000000000 ) ) ;
#286 = AXIS2_PLACEMENT_3D ( 'NONE', #272, #285, #284 ) ;
#287 = CYLINDRICAL_SURFACE ( 'NONE', #271, 12.69999999999999900 ) ;
#288 = DIRECTION ( 'NONE',  ( 1.000000000000000000, 0.0000000000000000000, 0.0000000000000000000 ) ) ;
#289 =( GEOMETRIC_REPRESENTATION_CONTEXT ( 3 ) GLOBAL_UNCERTAINTY_ASSIGNED_CONTEXT ( ( #221 ) ) GLOBAL_UNIT_ASSIGNED_CONTEXT ( ( #60, #202, #222 ) ) REPRESENTATION_CONTEXT ( 'NONE', 'WORKASPACE' ) );
#290 = VECTOR ( 'NONE', #56, 1000.000000000000100 ) ;
#291 = LINE ( 'NONE', #10, #290 ) ;
#292 = CARTESIAN_POINT ( 'NONE',  ( 12.55857864376269000, 0.0000000000000000000, -2.910000000000002800 ) ) ;
#293 = CARTESIAN_POINT ( 'NONE',  ( 0.0000000000000000000, 0.0000000000000000000, -2.910000000000002800 ) ) ;
#294 = FACE_OUTER_BOUND ( 'NONE', #199, .T. ) ;
#295 = AXIS2_PLACEMENT_3D ( 'NONE', #293, #48, #47 ) ;
#296 = CARTESIAN_POINT ( 'NONE',  ( 0.0000000000000000000, 0.0000000000000000000, -0.9585727311330685100 ) ) ;
#297 = AXIS2_PLACEMENT_3D ( 'NONE', #301, #23, #22 ) ;
#298 = DIRECTION ( 'NONE',  ( 0.7071067811865388000, 8.659560562354826900E-017, -0.7071067811865561200 ) ) ;
#299 = VECTOR ( 'NONE', #298, 1000.000000000000100 ) ;
#300 = CARTESIAN_POINT ( 'NONE',  ( 0.0000000000000000000, 0.0000000000000000000, -0.8171513748957554000 ) ) ;
#301 = CARTESIAN_POINT ( 'NONE',  ( 0.0000000000000000000, 0.0000000000000000000, -2.910000000000002800 ) ) ;
ENDSEC;
END-ISO-10303-21;
