ISO-10303-21;
HEADER;
FILE_DESCRIPTION (( 'STEP AP203' ),
    '1' );
FILE_NAME ('36991_36994.step',
    '2017-09-06T15:14:25',
    ( '' ),
    ( '' ),
    'SwSTEP 2.0',
    'SolidWorks 2016',
    '' );
FILE_SCHEMA (( 'CONFIG_CONTROL_DESIGN' ));
ENDSEC;

DATA;
#1 = PRODUCT_DEFINITION_FORMATION_WITH_SPECIFIED_SOURCE ( 'ANY', '', #14, .NOT_KNOWN. ) ;
#2 = PERSON ( 'UNSPECIFIED', 'UNSPECIFIED', 'UNSPECIFIED', ('UNSPECIFIED'), ('UNSPECIFIED'), ('UNSPECIFIED') ) ;
#3 = PERSON_AND_ORGANIZATION ( #2, #80 ) ;
#4 = CIRCLE ( 'NONE', #126, 12.50000000000000000 ) ;
#5 = CC_DESIGN_PERSON_AND_ORGANIZATION_ASSIGNMENT ( #169, #63, ( #54 ) ) ;
#6 = EDGE_LOOP ( 'NONE', ( #143, #150, #20, #117 ) ) ;
#7 = DIRECTION ( 'NONE',  ( -1.000000000000000000, 0.0000000000000000000, 0.0000000000000000000 ) ) ;
#8 = APPROVAL ( #41, 'UNSPECIFIED' ) ;
#9 = DIRECTION ( 'NONE',  ( 1.000000000000000000, 0.0000000000000000000, -0.0000000000000000000 ) ) ;
#10 = CIRCLE ( 'NONE', #116, 12.50000000000000000 ) ;
#11 = AXIS2_PLACEMENT_3D ( 'NONE', #152, #113, #75 ) ;
#12 = COORDINATED_UNIVERSAL_TIME_OFFSET ( 5, 0, .BEHIND. ) ;
#13 = PERSON_AND_ORGANIZATION_ROLE ( 'design_supplier' ) ;
#14 = PRODUCT ( '36991_36994', '36991_36994', '', ( #157 ) ) ;
#15 = VERTEX_POINT ( 'NONE', #23 ) ;
#16 = AXIS2_PLACEMENT_3D ( 'NONE', #24, #111, #57 ) ;
#17 = PERSON_AND_ORGANIZATION ( #2, #80 ) ;
#18 = DATE_AND_TIME ( #149, #135 ) ;
#19 = CC_DESIGN_APPROVAL ( #8, ( #1 ) ) ;
#20 = ORIENTED_EDGE ( 'NONE', *, *, #162, .T. ) ;
#21 =( GEOMETRIC_REPRESENTATION_CONTEXT ( 3 ) GLOBAL_UNCERTAINTY_ASSIGNED_CONTEXT ( ( #86 ) ) GLOBAL_UNIT_ASSIGNED_CONTEXT ( ( #22, #134, #119 ) ) REPRESENTATION_CONTEXT ( 'NONE', 'WORKASPACE' ) );
#22 =( LENGTH_UNIT ( ) NAMED_UNIT ( * ) SI_UNIT ( .MILLI., .METRE. ) );
#23 = CARTESIAN_POINT ( 'NONE',  ( 12.50000000000000000, 1.530808498934191500E-015, -0.5000000000000000000 ) ) ;
#24 = CARTESIAN_POINT ( 'NONE',  ( 0.0000000000000000000, 0.0000000000000000000, -0.5000000000000000000 ) ) ;
#25 = APPLICATION_PROTOCOL_DEFINITION ( 'international standard', 'config_control_design', 1994, #62 ) ;
#26 = PERSON_AND_ORGANIZATION ( #2, #80 ) ;
#27 = APPROVAL_PERSON_ORGANIZATION ( #3, #142, #127 ) ;
#28 = FACE_OUTER_BOUND ( 'NONE', #6, .T. ) ;
#29 = PERSON_AND_ORGANIZATION ( #2, #80 ) ;
#30 = AXIS2_PLACEMENT_3D ( 'NONE', #110, #167, #51 ) ;
#31 = PERSON_AND_ORGANIZATION ( #2, #80 ) ;
#32 = ORIENTED_EDGE ( 'NONE', *, *, #107, .F. ) ;
#33 = PRODUCT_DEFINITION ( 'UNKNOWN', '', #1, #38 ) ;
#34 = VERTEX_POINT ( 'NONE', #168 ) ;
#35 = DIRECTION ( 'NONE',  ( 0.0000000000000000000, 0.0000000000000000000, 1.000000000000000000 ) ) ;
#36 = DIRECTION ( 'NONE',  ( -1.000000000000000000, 0.0000000000000000000, 0.0000000000000000000 ) ) ;
#37 = ADVANCED_FACE ( 'NONE', ( #128 ), #106, .F. ) ;
#38 = DESIGN_CONTEXT ( 'detailed design', #62, 'design' ) ;
#39 = DIRECTION ( 'NONE',  ( -0.0000000000000000000, -0.0000000000000000000, -1.000000000000000000 ) ) ;
#40 = CC_DESIGN_PERSON_AND_ORGANIZATION_ASSIGNMENT ( #29, #43, ( #1 ) ) ;
#41 = APPROVAL_STATUS ( 'not_yet_approved' ) ;
#42 = AXIS2_PLACEMENT_3D ( 'NONE', #137, #85, #108 ) ;
#43 = PERSON_AND_ORGANIZATION_ROLE ( 'creator' ) ;
#44 = CALENDAR_DATE ( 2017, 6, 9 ) ;
#45 = CIRCLE ( 'NONE', #11, 12.50000000000000000 ) ;
#46 = ORIENTED_EDGE ( 'NONE', *, *, #138, .T. ) ;
#47 = CC_DESIGN_PERSON_AND_ORGANIZATION_ASSIGNMENT ( #26, #13, ( #1 ) ) ;
#48 = CARTESIAN_POINT ( 'NONE',  ( 0.0000000000000000000, 0.0000000000000000000, 0.5000000000000000000 ) ) ;
#49 = PERSON_AND_ORGANIZATION ( #2, #80 ) ;
#50 = DIRECTION ( 'NONE',  ( 1.000000000000000000, 0.0000000000000000000, 0.0000000000000000000 ) ) ;
#51 = DIRECTION ( 'NONE',  ( 1.000000000000000000, 0.0000000000000000000, -0.0000000000000000000 ) ) ;
#52 = APPROVAL_DATE_TIME ( #166, #125 ) ;
#53 = VECTOR ( 'NONE', #124, 1000.000000000000000 ) ;
#54 = SECURITY_CLASSIFICATION ( '', '', #158 ) ;
#55 = CARTESIAN_POINT ( 'NONE',  ( 0.0000000000000000000, 0.0000000000000000000, -0.5000000000000000000 ) ) ;
#56 = APPROVAL_DATE_TIME ( #18, #142 ) ;
#57 = DIRECTION ( 'NONE',  ( 1.000000000000000000, 0.0000000000000000000, 0.0000000000000000000 ) ) ;
#58 = ADVANCED_FACE ( 'NONE', ( #28 ), #70, .T. ) ;
#59 = DIRECTION ( 'NONE',  ( 0.0000000000000000000, 0.0000000000000000000, 1.000000000000000000 ) ) ;
#60 = DATE_AND_TIME ( #156, #92 ) ;
#61 = APPLICATION_CONTEXT ( 'configuration controlled 3d designs of mechanical parts and assemblies' ) ;
#62 = APPLICATION_CONTEXT ( 'configuration controlled 3d designs of mechanical parts and assemblies' ) ;
#63 = PERSON_AND_ORGANIZATION_ROLE ( 'classification_officer' ) ;
#64 = PERSON_AND_ORGANIZATION ( #2, #80 ) ;
#65 = DATE_TIME_ROLE ( 'creation_date' ) ;
#66 = COORDINATED_UNIVERSAL_TIME_OFFSET ( 5, 0, .BEHIND. ) ;
#67 = CALENDAR_DATE ( 2017, 6, 9 ) ;
#68 = VERTEX_POINT ( 'NONE', #154 ) ;
#69 = CC_DESIGN_PERSON_AND_ORGANIZATION_ASSIGNMENT ( #31, #172, ( #14 ) ) ;
#70 = CYLINDRICAL_SURFACE ( 'NONE', #129, 12.50000000000000000 ) ;
#71 = DIRECTION ( 'NONE',  ( -0.0000000000000000000, -0.0000000000000000000, -1.000000000000000000 ) ) ;
#72 = DIRECTION ( 'NONE',  ( 1.000000000000000000, 0.0000000000000000000, 0.0000000000000000000 ) ) ;
#73 = DIRECTION ( 'NONE',  ( -0.0000000000000000000, -0.0000000000000000000, -1.000000000000000000 ) ) ;
#74 = CARTESIAN_POINT ( 'NONE',  ( 0.0000000000000000000, 0.0000000000000000000, -0.5000000000000000000 ) ) ;
#75 = DIRECTION ( 'NONE',  ( 1.000000000000000000, 0.0000000000000000000, 0.0000000000000000000 ) ) ;
#76 = APPROVAL_STATUS ( 'not_yet_approved' ) ;
#77 = DATE_TIME_ROLE ( 'classification_date' ) ;
#78 = LOCAL_TIME ( 11, 14, 25.00000000000000000, #160 ) ;
#79 = ORIENTED_EDGE ( 'NONE', *, *, #101, .T. ) ;
#80 = ORGANIZATION ( 'UNSPECIFIED', 'UNSPECIFIED', '' ) ;
#81 = VERTEX_POINT ( 'NONE', #96 ) ;
#82 = ORIENTED_EDGE ( 'NONE', *, *, #107, .T. ) ;
#83 = ORIENTED_EDGE ( 'NONE', *, *, #162, .F. ) ;
#84 = APPROVAL_PERSON_ORGANIZATION ( #64, #8, #100 ) ;
#85 = DIRECTION ( 'NONE',  ( 0.0000000000000000000, 0.0000000000000000000, 1.000000000000000000 ) ) ;
#86 = UNCERTAINTY_MEASURE_WITH_UNIT (LENGTH_MEASURE( 1.000000000000000100E-005 ), #22, 'distance_accuracy_value', 'NONE');
#87 = ADVANCED_FACE ( 'NONE', ( #123 ), #105, .T. ) ;
#88 = PRODUCT_RELATED_PRODUCT_CATEGORY ( 'detail', '', ( #14 ) ) ;
#89 = SHAPE_DEFINITION_REPRESENTATION ( #171, #94 ) ;
#90 = LINE ( 'NONE', #97, #53 ) ;
#91 = APPROVAL_PERSON_ORGANIZATION ( #17, #125, #175 ) ;
#92 = LOCAL_TIME ( 11, 14, 25.00000000000000000, #104 ) ;
#93 = LINE ( 'NONE', #95, #145 ) ;
#94 = ADVANCED_BREP_SHAPE_REPRESENTATION ( '36991_36994', ( #146, #42 ), #21 ) ;
#95 = CARTESIAN_POINT ( 'NONE',  ( -12.50000000000000000, 0.0000000000000000000, 0.5000000000000000000 ) ) ;
#96 = CARTESIAN_POINT ( 'NONE',  ( 12.50000000000000000, 1.530808498934191500E-015, 0.5000000000000000000 ) ) ;
#97 = CARTESIAN_POINT ( 'NONE',  ( 12.50000000000000000, 1.530808498934191500E-015, 0.5000000000000000000 ) ) ;
#98 = PLANE ( 'NONE',  #30 ) ;
#99 = CC_DESIGN_DATE_AND_TIME_ASSIGNMENT ( #60, #77, ( #54 ) ) ;
#100 = APPROVAL_ROLE ( '' ) ;
#101 = EDGE_CURVE ( 'NONE', #34, #81, #10, .T. ) ;
#102 = COORDINATED_UNIVERSAL_TIME_OFFSET ( 5, 0, .BEHIND. ) ;
#103 = ORIENTED_EDGE ( 'NONE', *, *, #122, .F. ) ;
#104 = COORDINATED_UNIVERSAL_TIME_OFFSET ( 5, 0, .BEHIND. ) ;
#105 = CYLINDRICAL_SURFACE ( 'NONE', #173, 12.50000000000000000 ) ;
#106 = PLANE ( 'NONE',  #144 ) ;
#107 = EDGE_CURVE ( 'NONE', #81, #34, #45, .T. ) ;
#108 = DIRECTION ( 'NONE',  ( 1.000000000000000000, 0.0000000000000000000, 0.0000000000000000000 ) ) ;
#109 = CLOSED_SHELL ( 'NONE', ( #87, #58, #118, #37 ) ) ;
#110 = CARTESIAN_POINT ( 'NONE',  ( 0.0000000000000000000, 0.0000000000000000000, 0.5000000000000000000 ) ) ;
#111 = DIRECTION ( 'NONE',  ( 0.0000000000000000000, 0.0000000000000000000, 1.000000000000000000 ) ) ;
#112 = DATE_AND_TIME ( #67, #147 ) ;
#113 = DIRECTION ( 'NONE',  ( 0.0000000000000000000, 0.0000000000000000000, 1.000000000000000000 ) ) ;
#114 = EDGE_LOOP ( 'NONE', ( #79, #82 ) ) ;
#115 = EDGE_LOOP ( 'NONE', ( #103, #131 ) ) ;
#116 = AXIS2_PLACEMENT_3D ( 'NONE', #133, #59, #72 ) ;
#117 = ORIENTED_EDGE ( 'NONE', *, *, #122, .T. ) ;
#118 = ADVANCED_FACE ( 'NONE', ( #164 ), #98, .T. ) ;
#119 =( NAMED_UNIT ( * ) SI_UNIT ( $, .STERADIAN. ) SOLID_ANGLE_UNIT ( ) );
#120 = DIRECTION ( 'NONE',  ( 0.0000000000000000000, 0.0000000000000000000, 1.000000000000000000 ) ) ;
#121 = DATE_AND_TIME ( #44, #161 ) ;
#122 = EDGE_CURVE ( 'NONE', #68, #15, #174, .T. ) ;
#123 = FACE_OUTER_BOUND ( 'NONE', #148, .T. ) ;
#124 = DIRECTION ( 'NONE',  ( -0.0000000000000000000, -0.0000000000000000000, -1.000000000000000000 ) ) ;
#125 = APPROVAL ( #76, 'UNSPECIFIED' ) ;
#126 = AXIS2_PLACEMENT_3D ( 'NONE', #74, #120, #50 ) ;
#127 = APPROVAL_ROLE ( '' ) ;
#128 = FACE_OUTER_BOUND ( 'NONE', #115, .T. ) ;
#129 = AXIS2_PLACEMENT_3D ( 'NONE', #48, #39, #7 ) ;
#130 = APPROVAL_DATE_TIME ( #112, #8 ) ;
#131 = ORIENTED_EDGE ( 'NONE', *, *, #159, .F. ) ;
#132 = CC_DESIGN_APPROVAL ( #125, ( #54 ) ) ;
#133 = CARTESIAN_POINT ( 'NONE',  ( 0.0000000000000000000, 0.0000000000000000000, 0.5000000000000000000 ) ) ;
#134 =( NAMED_UNIT ( * ) PLANE_ANGLE_UNIT ( ) SI_UNIT ( $, .RADIAN. ) );
#135 = LOCAL_TIME ( 11, 14, 25.00000000000000000, #12 ) ;
#136 = APPLICATION_PROTOCOL_DEFINITION ( 'international standard', 'config_control_design', 1994, #61 ) ;
#137 = CARTESIAN_POINT ( 'NONE',  ( 0.0000000000000000000, 0.0000000000000000000, 0.0000000000000000000 ) ) ;
#138 = EDGE_CURVE ( 'NONE', #81, #15, #90, .T. ) ;
#139 = APPROVAL_STATUS ( 'not_yet_approved' ) ;
#140 = PERSON_AND_ORGANIZATION_ROLE ( 'creator' ) ;
#141 = CALENDAR_DATE ( 2017, 6, 9 ) ;
#142 = APPROVAL ( #139, 'UNSPECIFIED' ) ;
#143 = ORIENTED_EDGE ( 'NONE', *, *, #138, .F. ) ;
#144 = AXIS2_PLACEMENT_3D ( 'NONE', #55, #35, #9 ) ;
#145 = VECTOR ( 'NONE', #71, 1000.000000000000000 ) ;
#146 = MANIFOLD_SOLID_BREP ( 'Boss-Extrude1', #109 ) ;
#147 = LOCAL_TIME ( 11, 14, 25.00000000000000000, #102 ) ;
#148 = EDGE_LOOP ( 'NONE', ( #32, #46, #170, #83 ) ) ;
#149 = CALENDAR_DATE ( 2017, 6, 9 ) ;
#150 = ORIENTED_EDGE ( 'NONE', *, *, #101, .F. ) ;
#151 = CARTESIAN_POINT ( 'NONE',  ( 0.0000000000000000000, 0.0000000000000000000, 0.5000000000000000000 ) ) ;
#152 = CARTESIAN_POINT ( 'NONE',  ( 0.0000000000000000000, 0.0000000000000000000, 0.5000000000000000000 ) ) ;
#153 = CC_DESIGN_APPROVAL ( #142, ( #33 ) ) ;
#154 = CARTESIAN_POINT ( 'NONE',  ( -12.50000000000000000, 0.0000000000000000000, -0.5000000000000000000 ) ) ;
#155 = CC_DESIGN_PERSON_AND_ORGANIZATION_ASSIGNMENT ( #49, #140, ( #33 ) ) ;
#156 = CALENDAR_DATE ( 2017, 6, 9 ) ;
#157 = MECHANICAL_CONTEXT ( 'NONE', #61, 'mechanical' ) ;
#158 = SECURITY_CLASSIFICATION_LEVEL ( 'unclassified' ) ;
#159 = EDGE_CURVE ( 'NONE', #15, #68, #4, .T. ) ;
#160 = COORDINATED_UNIVERSAL_TIME_OFFSET ( 5, 0, .BEHIND. ) ;
#161 = LOCAL_TIME ( 11, 14, 25.00000000000000000, #66 ) ;
#162 = EDGE_CURVE ( 'NONE', #34, #68, #93, .T. ) ;
#163 = CC_DESIGN_SECURITY_CLASSIFICATION ( #54, ( #1 ) ) ;
#164 = FACE_OUTER_BOUND ( 'NONE', #114, .T. ) ;
#165 = CC_DESIGN_DATE_AND_TIME_ASSIGNMENT ( #121, #65, ( #33 ) ) ;
#166 = DATE_AND_TIME ( #141, #78 ) ;
#167 = DIRECTION ( 'NONE',  ( 0.0000000000000000000, 0.0000000000000000000, 1.000000000000000000 ) ) ;
#168 = CARTESIAN_POINT ( 'NONE',  ( -12.50000000000000000, 0.0000000000000000000, 0.5000000000000000000 ) ) ;
#169 = PERSON_AND_ORGANIZATION ( #2, #80 ) ;
#170 = ORIENTED_EDGE ( 'NONE', *, *, #159, .T. ) ;
#171 = PRODUCT_DEFINITION_SHAPE ( 'NONE', 'NONE',  #33 ) ;
#172 = PERSON_AND_ORGANIZATION_ROLE ( 'design_owner' ) ;
#173 = AXIS2_PLACEMENT_3D ( 'NONE', #151, #73, #36 ) ;
#174 = CIRCLE ( 'NONE', #16, 12.50000000000000000 ) ;
#175 = APPROVAL_ROLE ( '' ) ;
ENDSEC;
END-ISO-10303-21;
