ISO-10303-21;
HEADER;
FILE_DESCRIPTION (( 'STEP AP203' ),
    '1' );
FILE_NAME ('Web Model 47126_48579.step',
    '2017-06-06T16:55:26',
    ( '' ),
    ( '' ),
    'SwSTEP 2.0',
    'SolidWorks 2016',
    '' );
FILE_SCHEMA (( 'CONFIG_CONTROL_DESIGN' ));
ENDSEC;

DATA;
#1 = ORIENTED_EDGE ( 'NONE', *, *, #186, .F. ) ;
#2 = ORIENTED_EDGE ( 'NONE', *, *, #107, .T. ) ;
#3 = CLOSED_SHELL ( 'NONE', ( #64, #36, #255, #78, #98 ) ) ;
#4 = VERTEX_POINT ( 'NONE', #7 ) ;
#5 = ORIENTED_EDGE ( 'NONE', *, *, #167, .T. ) ;
#6 = ORIENTED_EDGE ( 'NONE', *, *, #152, .T. ) ;
#7 = CARTESIAN_POINT ( 'NONE',  ( 10.00000000000000000, -10.00000000000000000, 10.00000000000000000 ) ) ;
#8 = CC_DESIGN_PERSON_AND_ORGANIZATION_ASSIGNMENT ( #178, #138, ( #276 ) ) ;
#9 = DATE_AND_TIME ( #63, #166 ) ;
#10 = VECTOR ( 'NONE', #281, 1000.000000000000000 ) ;
#11 = VECTOR ( 'NONE', #203, 1000.000000000000000 ) ;
#12 = CARTESIAN_POINT ( 'NONE',  ( 0.0000000000000000000, 10.00000000000000000, 10.00000000000000000 ) ) ;
#13 = ADVANCED_BREP_SHAPE_REPRESENTATION ( 'Web Model 47126_48579', ( #205, #163, #248 ), #172 ) ;
#14 = EDGE_CURVE ( 'NONE', #289, #134, #133, .T. ) ;
#15 = DIRECTION ( 'NONE',  ( -0.7071067811865474600, 0.7071067811865474600, 0.0000000000000000000 ) ) ;
#16 = ORIENTED_EDGE ( 'NONE', *, *, #132, .F. ) ;
#17 = DIRECTION ( 'NONE',  ( 0.0000000000000000000, 0.0000000000000000000, 1.000000000000000000 ) ) ;
#18 = DIRECTION ( 'NONE',  ( 1.000000000000000000, 0.0000000000000000000, 0.0000000000000000000 ) ) ;
#19 = APPROVAL_STATUS ( 'not_yet_approved' ) ;
#20 = ORIENTED_EDGE ( 'NONE', *, *, #94, .T. ) ;
#21 = AXIS2_PLACEMENT_3D ( 'NONE', #191, #156, #233 ) ;
#22 = PLANE ( 'NONE',  #269 ) ;
#23 = CC_DESIGN_SECURITY_CLASSIFICATION ( #252, ( #55 ) ) ;
#24 = CARTESIAN_POINT ( 'NONE',  ( 10.00000000000000000, 0.0000000000000000000, 10.00000000000000000 ) ) ;
#25 = VECTOR ( 'NONE', #257, 1000.000000000000000 ) ;
#26 = PLANE ( 'NONE',  #307 ) ;
#27 = CARTESIAN_POINT ( 'NONE',  ( -10.00000000000000000, 10.00000000000000000, 10.00000000000000000 ) ) ;
#28 = DIRECTION ( 'NONE',  ( 0.0000000000000000000, -0.0000000000000000000, 1.000000000000000000 ) ) ;
#29 = VECTOR ( 'NONE', #53, 1000.000000000000100 ) ;
#30 = EDGE_LOOP ( 'NONE', ( #266, #317, #57, #67 ) ) ;
#31 = EDGE_LOOP ( 'NONE', ( #188, #2, #1 ) ) ;
#32 = EDGE_LOOP ( 'NONE', ( #208, #5, #40 ) ) ;
#33 = COORDINATED_UNIVERSAL_TIME_OFFSET ( 5, 0, .BEHIND. ) ;
#34 = COORDINATED_UNIVERSAL_TIME_OFFSET ( 5, 0, .BEHIND. ) ;
#35 = CC_DESIGN_DATE_AND_TIME_ASSIGNMENT ( #9, #52, ( #276 ) ) ;
#36 = ADVANCED_FACE ( 'NONE', ( #245 ), #212, .F. ) ;
#37 = PERSON_AND_ORGANIZATION ( #181, #119 ) ;
#38 = DATE_AND_TIME ( #164, #247 ) ;
#39 = DATE_AND_TIME ( #277, #58 ) ;
#40 = ORIENTED_EDGE ( 'NONE', *, *, #152, .F. ) ;
#41 = EDGE_CURVE ( 'NONE', #162, #177, #274, .T. ) ;
#42 = VECTOR ( 'NONE', #217, 1000.000000000000100 ) ;
#43 = CARTESIAN_POINT ( 'NONE',  ( 0.0000000000000000000, 0.0000000000000000000, 10.00000000000000000 ) ) ;
#44 = PRODUCT_RELATED_PRODUCT_CATEGORY ( 'detail', '', ( #256 ) ) ;
#45 = DIRECTION ( 'NONE',  ( 0.0000000000000000000, 1.000000000000000000, -0.0000000000000000000 ) ) ;
#46 = ORIENTED_EDGE ( 'NONE', *, *, #206, .F. ) ;
#47 = DIRECTION ( 'NONE',  ( -0.0000000000000000000, 0.0000000000000000000, 1.000000000000000000 ) ) ;
#48 = DIRECTION ( 'NONE',  ( 0.7071067811865475700, 0.7071067811865475700, -0.0000000000000000000 ) ) ;
#49 = CARTESIAN_POINT ( 'NONE',  ( 10.00000000000000000, -10.00000000000000000, 10.00000000000000000 ) ) ;
#50 = ADVANCED_FACE ( 'NONE', ( #254 ), #26, .F. ) ;
#51 = PLANE ( 'NONE',  #189 ) ;
#52 = DATE_TIME_ROLE ( 'creation_date' ) ;
#53 = DIRECTION ( 'NONE',  ( 0.7071067811865474600, -0.7071067811865474600, 0.0000000000000000000 ) ) ;
#54 = ORIENTED_EDGE ( 'NONE', *, *, #222, .T. ) ;
#55 = PRODUCT_DEFINITION_FORMATION_WITH_SPECIFIED_SOURCE ( 'ANY', '', #256, .NOT_KNOWN. ) ;
#56 = EDGE_CURVE ( 'NONE', #318, #162, #293, .T. ) ;
#57 = ORIENTED_EDGE ( 'NONE', *, *, #295, .F. ) ;
#58 = LOCAL_TIME ( 12, 55, 26.00000000000000000, #223 ) ;
#59 = FACE_OUTER_BOUND ( 'NONE', #32, .T. ) ;
#60 = AXIS2_PLACEMENT_3D ( 'NONE', #235, #96, #195 ) ;
#61 = CALENDAR_DATE ( 2017, 6, 6 ) ;
#62 = LOCAL_TIME ( 12, 55, 26.00000000000000000, #34 ) ;
#63 = CALENDAR_DATE ( 2017, 6, 6 ) ;
#64 = ADVANCED_FACE ( 'NONE', ( #157 ), #22, .F. ) ;
#65 = APPROVAL ( #19, 'UNSPECIFIED' ) ;
#66 = DATE_AND_TIME ( #61, #204 ) ;
#67 = ORIENTED_EDGE ( 'NONE', *, *, #14, .T. ) ;
#68 = APPROVAL_DATE_TIME ( #38, #291 ) ;
#69 = PLANE ( 'NONE',  #95 ) ;
#70 = LINE ( 'NONE', #305, #142 ) ;
#71 = PLANE ( 'NONE',  #60 ) ;
#72 = CARTESIAN_POINT ( 'NONE',  ( -10.00000000000000000, 10.00000000000000000, -10.00000000000000000 ) ) ;
#73 = ORIENTED_EDGE ( 'NONE', *, *, #107, .F. ) ;
#74 = DIRECTION ( 'NONE',  ( -0.0000000000000000000, 0.0000000000000000000, 1.000000000000000000 ) ) ;
#75 = SHAPE_DEFINITION_REPRESENTATION ( #316, #13 ) ;
#76 = EDGE_CURVE ( 'NONE', #92, #177, #82, .T. ) ;
#77 = DIRECTION ( 'NONE',  ( 1.000000000000000000, 0.0000000000000000000, 0.0000000000000000000 ) ) ;
#78 = ADVANCED_FACE ( 'NONE', ( #108 ), #155, .T. ) ;
#79 = APPROVAL_STATUS ( 'not_yet_approved' ) ;
#80 = VERTEX_POINT ( 'NONE', #27 ) ;
#81 = ORIENTED_EDGE ( 'NONE', *, *, #230, .T. ) ;
#82 = LINE ( 'NONE', #147, #25 ) ;
#83 = LINE ( 'NONE', #192, #42 ) ;
#84 = VECTOR ( 'NONE', #158, 1000.000000000000000 ) ;
#85 = FACE_OUTER_BOUND ( 'NONE', #242, .T. ) ;
#86 = DATE_AND_TIME ( #129, #62 ) ;
#87 = LINE ( 'NONE', #286, #225 ) ;
#88 = ORIENTED_EDGE ( 'NONE', *, *, #41, .F. ) ;
#89 = CC_DESIGN_APPROVAL ( #65, ( #55 ) ) ;
#90 = PERSON_AND_ORGANIZATION ( #181, #119 ) ;
#91 = ADVANCED_FACE ( 'NONE', ( #93 ), #135, .T. ) ;
#92 = VERTEX_POINT ( 'NONE', #237 ) ;
#93 = FACE_OUTER_BOUND ( 'NONE', #210, .T. ) ;
#94 = EDGE_CURVE ( 'NONE', #320, #313, #87, .T. ) ;
#95 = AXIS2_PLACEMENT_3D ( 'NONE', #216, #47, #194 ) ;
#96 = DIRECTION ( 'NONE',  ( -0.0000000000000000000, 0.0000000000000000000, 1.000000000000000000 ) ) ;
#97 = DIRECTION ( 'NONE',  ( 1.000000000000000000, 0.0000000000000000000, 0.0000000000000000000 ) ) ;
#98 = ADVANCED_FACE ( 'NONE', ( #85 ), #71, .F. ) ;
#99 = DIRECTION ( 'NONE',  ( 0.0000000000000000000, 1.000000000000000000, 0.0000000000000000000 ) ) ;
#100 = APPLICATION_PROTOCOL_DEFINITION ( 'international standard', 'config_control_design', 1994, #169 ) ;
#101 = VECTOR ( 'NONE', #105, 1000.000000000000100 ) ;
#102 = APPLICATION_PROTOCOL_DEFINITION ( 'international standard', 'config_control_design', 1994, #310 ) ;
#103 = SECURITY_CLASSIFICATION_LEVEL ( 'unclassified' ) ;
#104 = CC_DESIGN_PERSON_AND_ORGANIZATION_ASSIGNMENT ( #130, #202, ( #55 ) ) ;
#105 = DIRECTION ( 'NONE',  ( 0.7071067811865474600, -0.7071067811865474600, 0.0000000000000000000 ) ) ;
#106 = APPROVAL_PERSON_ORGANIZATION ( #251, #291, #241 ) ;
#107 = EDGE_CURVE ( 'NONE', #318, #92, #209, .T. ) ;
#108 = FACE_OUTER_BOUND ( 'NONE', #31, .T. ) ;
#109 = VECTOR ( 'NONE', #137, 1000.000000000000100 ) ;
#110 = ORIENTED_EDGE ( 'NONE', *, *, #230, .F. ) ;
#111 = APPROVAL_PERSON_ORGANIZATION ( #243, #297, #144 ) ;
#112 = LINE ( 'NONE', #12, #271 ) ;
#113 = CC_DESIGN_PERSON_AND_ORGANIZATION_ASSIGNMENT ( #184, #125, ( #55 ) ) ;
#114 = CARTESIAN_POINT ( 'NONE',  ( 0.0000000000000000000, -10.00000000000000000, 10.00000000000000000 ) ) ;
#115 = VECTOR ( 'NONE', #299, 1000.000000000000000 ) ;
#116 = CARTESIAN_POINT ( 'NONE',  ( -0.0000000000000000000, 0.0000000000000000000, -10.00000000000000000 ) ) ;
#117 = ORIENTED_EDGE ( 'NONE', *, *, #120, .T. ) ;
#118 = CARTESIAN_POINT ( 'NONE',  ( 0.0000000000000000000, 10.00000000000000000, 10.00000000000000000 ) ) ;
#119 = ORGANIZATION ( 'UNSPECIFIED', 'UNSPECIFIED', '' ) ;
#120 = EDGE_CURVE ( 'NONE', #228, #313, #288, .T. ) ;
#121 = CARTESIAN_POINT ( 'NONE',  ( 10.00000000000000000, 0.0000000000000000000, 10.00000000000000000 ) ) ;
#122 = MECHANICAL_CONTEXT ( 'NONE', #310, 'mechanical' ) ;
#123 = AXIS2_PLACEMENT_3D ( 'NONE', #114, #99, #239 ) ;
#124 = CARTESIAN_POINT ( 'NONE',  ( 10.00000000000000000, -10.00000000000000000, 10.00000000000000000 ) ) ;
#125 = PERSON_AND_ORGANIZATION_ROLE ( 'design_supplier' ) ;
#126 = ORIENTED_EDGE ( 'NONE', *, *, #120, .F. ) ;
#127 = LINE ( 'NONE', #170, #154 ) ;
#128 = CARTESIAN_POINT ( 'NONE',  ( 0.0000000000000000000, 0.0000000000000000000, 10.00000000000000000 ) ) ;
#129 = CALENDAR_DATE ( 2017, 6, 6 ) ;
#130 = PERSON_AND_ORGANIZATION ( #181, #119 ) ;
#131 = EDGE_LOOP ( 'NONE', ( #145, #219, #73, #260 ) ) ;
#132 = EDGE_CURVE ( 'NONE', #134, #177, #127, .T. ) ;
#133 = LINE ( 'NONE', #308, #185 ) ;
#134 = VERTEX_POINT ( 'NONE', #72 ) ;
#135 = PLANE ( 'NONE',  #21 ) ;
#136 = PLANE ( 'NONE',  #123 ) ;
#137 = DIRECTION ( 'NONE',  ( 0.7071067811865474600, -0.7071067811865474600, 0.0000000000000000000 ) ) ;
#138 = PERSON_AND_ORGANIZATION_ROLE ( 'creator' ) ;
#139 = VECTOR ( 'NONE', #309, 1000.000000000000000 ) ;
#140 = DIRECTION ( 'NONE',  ( 1.000000000000000000, 0.0000000000000000000, 0.0000000000000000000 ) ) ;
#141 = ORIENTED_EDGE ( 'NONE', *, *, #132, .T. ) ;
#142 = VECTOR ( 'NONE', #218, 1000.000000000000000 ) ;
#143 = EDGE_LOOP ( 'NONE', ( #207, #117, #215 ) ) ;
#144 = APPROVAL_ROLE ( '' ) ;
#145 = ORIENTED_EDGE ( 'NONE', *, *, #41, .T. ) ;
#146 = LINE ( 'NONE', #234, #183 ) ;
#147 = CARTESIAN_POINT ( 'NONE',  ( 10.00000000000000000, 10.00000000000000000, 10.00000000000000000 ) ) ;
#148 = CARTESIAN_POINT ( 'NONE',  ( -0.0000000000000000000, 0.0000000000000000000, -10.00000000000000000 ) ) ;
#149 = CARTESIAN_POINT ( 'NONE',  ( -10.00000000000000000, 0.0000000000000000000, -10.00000000000000000 ) ) ;
#150 = VECTOR ( 'NONE', #303, 1000.000000000000000 ) ;
#151 = APPROVAL_DATE_TIME ( #86, #65 ) ;
#152 = EDGE_CURVE ( 'NONE', #80, #4, #83, .T. ) ;
#153 = AXIS2_PLACEMENT_3D ( 'NONE', #258, #196, #17 ) ;
#154 = VECTOR ( 'NONE', #301, 1000.000000000000000 ) ;
#155 = PLANE ( 'NONE',  #296 ) ;
#156 = DIRECTION ( 'NONE',  ( 0.7071067811865475700, 0.7071067811865475700, -0.0000000000000000000 ) ) ;
#157 = FACE_OUTER_BOUND ( 'NONE', #30, .T. ) ;
#158 = DIRECTION ( 'NONE',  ( -0.0000000000000000000, -0.0000000000000000000, -1.000000000000000000 ) ) ;
#159 = CLOSED_SHELL ( 'NONE', ( #249, #236, #91, #193, #50 ) ) ;
#160 = DIRECTION ( 'NONE',  ( 1.000000000000000000, 0.0000000000000000000, 0.0000000000000000000 ) ) ;
#161 = CARTESIAN_POINT ( 'NONE',  ( -10.00000000000000000, -10.00000000000000000, 10.00000000000000000 ) ) ;
#162 = VERTEX_POINT ( 'NONE', #173 ) ;
#163 = MANIFOLD_SOLID_BREP ( 'Boss-Extrude3', #3 ) ;
#164 = CALENDAR_DATE ( 2017, 6, 6 ) ;
#165 = CARTESIAN_POINT ( 'NONE',  ( -10.00000000000000000, 10.00000000000000000, 10.00000000000000000 ) ) ;
#166 = LOCAL_TIME ( 12, 55, 26.00000000000000000, #227 ) ;
#167 = EDGE_CURVE ( 'NONE', #275, #4, #146, .T. ) ;
#168 = APPROVAL_PERSON_ORGANIZATION ( #37, #65, #198 ) ;
#169 = APPLICATION_CONTEXT ( 'configuration controlled 3d designs of mechanical parts and assemblies' ) ;
#170 = CARTESIAN_POINT ( 'NONE',  ( -0.0000000000000000000, 10.00000000000000000, -10.00000000000000000 ) ) ;
#171 =( NAMED_UNIT ( * ) SI_UNIT ( $, .STERADIAN. ) SOLID_ANGLE_UNIT ( ) );
#172 =( GEOMETRIC_REPRESENTATION_CONTEXT ( 3 ) GLOBAL_UNCERTAINTY_ASSIGNED_CONTEXT ( ( #294 ) ) GLOBAL_UNIT_ASSIGNED_CONTEXT ( ( #261, #201, #171 ) ) REPRESENTATION_CONTEXT ( 'NONE', 'WORKASPACE' ) );
#173 = CARTESIAN_POINT ( 'NONE',  ( 10.00000000000000000, -10.00000000000000000, -10.00000000000000000 ) ) ;
#174 = CARTESIAN_POINT ( 'NONE',  ( 0.0000000000000000000, 0.0000000000000000000, 0.0000000000000000000 ) ) ;
#175 = APPROVAL_STATUS ( 'not_yet_approved' ) ;
#176 = CARTESIAN_POINT ( 'NONE',  ( -10.00000000000000000, 10.00000000000000000, 10.00000000000000000 ) ) ;
#177 = VERTEX_POINT ( 'NONE', #265 ) ;
#178 = PERSON_AND_ORGANIZATION ( #181, #119 ) ;
#179 = ORIENTED_EDGE ( 'NONE', *, *, #279, .F. ) ;
#180 = ORIENTED_EDGE ( 'NONE', *, *, #267, .F. ) ;
#181 = PERSON ( 'UNSPECIFIED', 'UNSPECIFIED', 'UNSPECIFIED', ('UNSPECIFIED'), ('UNSPECIFIED'), ('UNSPECIFIED') ) ;
#182 = EDGE_LOOP ( 'NONE', ( #16, #232, #259, #211 ) ) ;
#183 = VECTOR ( 'NONE', #97, 1000.000000000000000 ) ;
#184 = PERSON_AND_ORGANIZATION ( #181, #119 ) ;
#185 = VECTOR ( 'NONE', #300, 1000.000000000000000 ) ;
#186 = EDGE_CURVE ( 'NONE', #289, #92, #112, .T. ) ;
#187 = FACE_OUTER_BOUND ( 'NONE', #272, .T. ) ;
#188 = ORIENTED_EDGE ( 'NONE', *, *, #295, .T. ) ;
#189 = AXIS2_PLACEMENT_3D ( 'NONE', #118, #283, #28 ) ;
#190 = LINE ( 'NONE', #161, #10 ) ;
#191 = CARTESIAN_POINT ( 'NONE',  ( 0.0000000000000000000, 0.0000000000000000000, 10.00000000000000000 ) ) ;
#192 = CARTESIAN_POINT ( 'NONE',  ( 0.0000000000000000000, 0.0000000000000000000, 10.00000000000000000 ) ) ;
#193 = ADVANCED_FACE ( 'NONE', ( #59 ), #69, .T. ) ;
#194 = DIRECTION ( 'NONE',  ( 1.000000000000000000, 0.0000000000000000000, 0.0000000000000000000 ) ) ;
#195 = DIRECTION ( 'NONE',  ( 1.000000000000000000, 0.0000000000000000000, 0.0000000000000000000 ) ) ;
#196 = DIRECTION ( 'NONE',  ( -1.000000000000000000, 0.0000000000000000000, 0.0000000000000000000 ) ) ;
#197 = DIRECTION ( 'NONE',  ( 1.000000000000000000, 0.0000000000000000000, 0.0000000000000000000 ) ) ;
#198 = APPROVAL_ROLE ( '' ) ;
#199 = EDGE_LOOP ( 'NONE', ( #214, #110, #54, #290 ) ) ;
#200 = CARTESIAN_POINT ( 'NONE',  ( 0.0000000000000000000, 0.0000000000000000000, 10.00000000000000000 ) ) ;
#201 =( NAMED_UNIT ( * ) PLANE_ANGLE_UNIT ( ) SI_UNIT ( $, .RADIAN. ) );
#202 = PERSON_AND_ORGANIZATION_ROLE ( 'creator' ) ;
#203 = DIRECTION ( 'NONE',  ( -0.0000000000000000000, -0.0000000000000000000, -1.000000000000000000 ) ) ;
#204 = LOCAL_TIME ( 12, 55, 26.00000000000000000, #231 ) ;
#205 = MANIFOLD_SOLID_BREP ( 'Boss-Extrude2', #159 ) ;
#206 = EDGE_CURVE ( 'NONE', #4, #313, #302, .T. ) ;
#207 = ORIENTED_EDGE ( 'NONE', *, *, #315, .T. ) ;
#208 = ORIENTED_EDGE ( 'NONE', *, *, #222, .F. ) ;
#209 = LINE ( 'NONE', #121, #229 ) ;
#210 = EDGE_LOOP ( 'NONE', ( #126, #180, #6, #250 ) ) ;
#211 = ORIENTED_EDGE ( 'NONE', *, *, #76, .T. ) ;
#212 = PLANE ( 'NONE',  #273 ) ;
#213 = PERSON_AND_ORGANIZATION ( #181, #119 ) ;
#214 = ORIENTED_EDGE ( 'NONE', *, *, #315, .F. ) ;
#215 = ORIENTED_EDGE ( 'NONE', *, *, #94, .F. ) ;
#216 = CARTESIAN_POINT ( 'NONE',  ( 0.0000000000000000000, 0.0000000000000000000, 10.00000000000000000 ) ) ;
#217 = DIRECTION ( 'NONE',  ( 0.7071067811865474600, -0.7071067811865474600, 0.0000000000000000000 ) ) ;
#218 = DIRECTION ( 'NONE',  ( 0.0000000000000000000, 1.000000000000000000, -0.0000000000000000000 ) ) ;
#219 = ORIENTED_EDGE ( 'NONE', *, *, #76, .F. ) ;
#220 = CARTESIAN_POINT ( 'NONE',  ( 10.00000000000000000, 0.0000000000000000000, -10.00000000000000000 ) ) ;
#221 = PLANE ( 'NONE',  #153 ) ;
#222 = EDGE_CURVE ( 'NONE', #275, #80, #70, .T. ) ;
#223 = COORDINATED_UNIVERSAL_TIME_OFFSET ( 5, 0, .BEHIND. ) ;
#224 = DIRECTION ( 'NONE',  ( 0.0000000000000000000, 0.0000000000000000000, 1.000000000000000000 ) ) ;
#225 = VECTOR ( 'NONE', #197, 1000.000000000000000 ) ;
#226 = CARTESIAN_POINT ( 'NONE',  ( -10.00000000000000000, -10.00000000000000000, -10.00000000000000000 ) ) ;
#227 = COORDINATED_UNIVERSAL_TIME_OFFSET ( 5, 0, .BEHIND. ) ;
#228 = VERTEX_POINT ( 'NONE', #238 ) ;
#229 = VECTOR ( 'NONE', #45, 1000.000000000000000 ) ;
#230 = EDGE_CURVE ( 'NONE', #275, #320, #190, .T. ) ;
#231 = COORDINATED_UNIVERSAL_TIME_OFFSET ( 5, 0, .BEHIND. ) ;
#232 = ORIENTED_EDGE ( 'NONE', *, *, #14, .F. ) ;
#233 = DIRECTION ( 'NONE',  ( -0.7071067811865474600, 0.7071067811865474600, 0.0000000000000000000 ) ) ;
#234 = CARTESIAN_POINT ( 'NONE',  ( 0.0000000000000000000, -10.00000000000000000, 10.00000000000000000 ) ) ;
#235 = CARTESIAN_POINT ( 'NONE',  ( 0.0000000000000000000, 0.0000000000000000000, -10.00000000000000000 ) ) ;
#236 = ADVANCED_FACE ( 'NONE', ( #187 ), #136, .F. ) ;
#237 = CARTESIAN_POINT ( 'NONE',  ( 10.00000000000000000, 10.00000000000000000, 10.00000000000000000 ) ) ;
#238 = CARTESIAN_POINT ( 'NONE',  ( -10.00000000000000000, 10.00000000000000000, -10.00000000000000000 ) ) ;
#239 = DIRECTION ( 'NONE',  ( 0.0000000000000000000, -0.0000000000000000000, 1.000000000000000000 ) ) ;
#240 = CARTESIAN_POINT ( 'NONE',  ( 10.00000000000000000, -10.00000000000000000, 10.00000000000000000 ) ) ;
#241 = APPROVAL_ROLE ( '' ) ;
#242 = EDGE_LOOP ( 'NONE', ( #179, #141, #88 ) ) ;
#243 = PERSON_AND_ORGANIZATION ( #181, #119 ) ;
#244 = DATE_TIME_ROLE ( 'classification_date' ) ;
#245 = FACE_OUTER_BOUND ( 'NONE', #131, .T. ) ;
#246 = CARTESIAN_POINT ( 'NONE',  ( -10.00000000000000000, -10.00000000000000000, 10.00000000000000000 ) ) ;
#247 = LOCAL_TIME ( 12, 55, 26.00000000000000000, #33 ) ;
#248 = AXIS2_PLACEMENT_3D ( 'NONE', #174, #224, #140 ) ;
#249 = ADVANCED_FACE ( 'NONE', ( #268 ), #221, .T. ) ;
#250 = ORIENTED_EDGE ( 'NONE', *, *, #206, .T. ) ;
#251 = PERSON_AND_ORGANIZATION ( #181, #119 ) ;
#252 = SECURITY_CLASSIFICATION ( '', '', #103 ) ;
#253 = DIRECTION ( 'NONE',  ( -0.0000000000000000000, 0.0000000000000000000, 1.000000000000000000 ) ) ;
#254 = FACE_OUTER_BOUND ( 'NONE', #143, .T. ) ;
#255 = ADVANCED_FACE ( 'NONE', ( #321 ), #51, .T. ) ;
#256 = PRODUCT ( 'Web Model 47126_48579', 'Web Model 47126_48579', '', ( #122 ) ) ;
#257 = DIRECTION ( 'NONE',  ( -0.0000000000000000000, -0.0000000000000000000, -1.000000000000000000 ) ) ;
#258 = CARTESIAN_POINT ( 'NONE',  ( -10.00000000000000000, 0.0000000000000000000, 10.00000000000000000 ) ) ;
#259 = ORIENTED_EDGE ( 'NONE', *, *, #186, .T. ) ;
#260 = ORIENTED_EDGE ( 'NONE', *, *, #56, .T. ) ;
#261 =( LENGTH_UNIT ( ) NAMED_UNIT ( * ) SI_UNIT ( .MILLI., .METRE. ) );
#262 = CC_DESIGN_PERSON_AND_ORGANIZATION_ASSIGNMENT ( #213, #284, ( #256 ) ) ;
#263 = PERSON_AND_ORGANIZATION_ROLE ( 'classification_officer' ) ;
#264 = DIRECTION ( 'NONE',  ( -1.000000000000000000, 0.0000000000000000000, 0.0000000000000000000 ) ) ;
#265 = CARTESIAN_POINT ( 'NONE',  ( 10.00000000000000000, 10.00000000000000000, -10.00000000000000000 ) ) ;
#266 = ORIENTED_EDGE ( 'NONE', *, *, #279, .T. ) ;
#267 = EDGE_CURVE ( 'NONE', #80, #228, #306, .T. ) ;
#268 = FACE_OUTER_BOUND ( 'NONE', #199, .T. ) ;
#269 = AXIS2_PLACEMENT_3D ( 'NONE', #43, #48, #15 ) ;
#270 = CC_DESIGN_PERSON_AND_ORGANIZATION_ASSIGNMENT ( #90, #263, ( #252 ) ) ;
#271 = VECTOR ( 'NONE', #160, 1000.000000000000000 ) ;
#272 = EDGE_LOOP ( 'NONE', ( #20, #46, #298, #81 ) ) ;
#273 = AXIS2_PLACEMENT_3D ( 'NONE', #24, #264, #280 ) ;
#274 = LINE ( 'NONE', #220, #115 ) ;
#275 = VERTEX_POINT ( 'NONE', #246 ) ;
#276 = PRODUCT_DEFINITION ( 'UNKNOWN', '', #55, #292 ) ;
#277 = CALENDAR_DATE ( 2017, 6, 6 ) ;
#278 = CARTESIAN_POINT ( 'NONE',  ( 0.0000000000000000000, 0.0000000000000000000, -10.00000000000000000 ) ) ;
#279 = EDGE_CURVE ( 'NONE', #134, #162, #312, .T. ) ;
#280 = DIRECTION ( 'NONE',  ( 0.0000000000000000000, 0.0000000000000000000, 1.000000000000000000 ) ) ;
#281 = DIRECTION ( 'NONE',  ( -0.0000000000000000000, -0.0000000000000000000, -1.000000000000000000 ) ) ;
#282 = LINE ( 'NONE', #128, #29 ) ;
#283 = DIRECTION ( 'NONE',  ( 0.0000000000000000000, 1.000000000000000000, 0.0000000000000000000 ) ) ;
#284 = PERSON_AND_ORGANIZATION_ROLE ( 'design_owner' ) ;
#285 = CC_DESIGN_DATE_AND_TIME_ASSIGNMENT ( #66, #244, ( #252 ) ) ;
#286 = CARTESIAN_POINT ( 'NONE',  ( 0.0000000000000000000, -10.00000000000000000, -10.00000000000000000 ) ) ;
#287 = CARTESIAN_POINT ( 'NONE',  ( 10.00000000000000000, -10.00000000000000000, -10.00000000000000000 ) ) ;
#288 = LINE ( 'NONE', #116, #109 ) ;
#289 = VERTEX_POINT ( 'NONE', #176 ) ;
#290 = ORIENTED_EDGE ( 'NONE', *, *, #267, .T. ) ;
#291 = APPROVAL ( #79, 'UNSPECIFIED' ) ;
#292 = DESIGN_CONTEXT ( 'detailed design', #169, 'design' ) ;
#293 = LINE ( 'NONE', #240, #84 ) ;
#294 = UNCERTAINTY_MEASURE_WITH_UNIT (LENGTH_MEASURE( 1.000000000000000100E-005 ), #261, 'distance_accuracy_value', 'NONE');
#295 = EDGE_CURVE ( 'NONE', #289, #318, #282, .T. ) ;
#296 = AXIS2_PLACEMENT_3D ( 'NONE', #200, #253, #77 ) ;
#297 = APPROVAL ( #175, 'UNSPECIFIED' ) ;
#298 = ORIENTED_EDGE ( 'NONE', *, *, #167, .F. ) ;
#299 = DIRECTION ( 'NONE',  ( 0.0000000000000000000, 1.000000000000000000, -0.0000000000000000000 ) ) ;
#300 = DIRECTION ( 'NONE',  ( -0.0000000000000000000, -0.0000000000000000000, -1.000000000000000000 ) ) ;
#301 = DIRECTION ( 'NONE',  ( 1.000000000000000000, 0.0000000000000000000, 0.0000000000000000000 ) ) ;
#302 = LINE ( 'NONE', #49, #150 ) ;
#303 = DIRECTION ( 'NONE',  ( -0.0000000000000000000, -0.0000000000000000000, -1.000000000000000000 ) ) ;
#304 = LINE ( 'NONE', #149, #139 ) ;
#305 = CARTESIAN_POINT ( 'NONE',  ( -10.00000000000000000, 0.0000000000000000000, 10.00000000000000000 ) ) ;
#306 = LINE ( 'NONE', #165, #11 ) ;
#307 = AXIS2_PLACEMENT_3D ( 'NONE', #278, #74, #18 ) ;
#308 = CARTESIAN_POINT ( 'NONE',  ( -10.00000000000000000, 10.00000000000000000, 10.00000000000000000 ) ) ;
#309 = DIRECTION ( 'NONE',  ( 0.0000000000000000000, 1.000000000000000000, -0.0000000000000000000 ) ) ;
#310 = APPLICATION_CONTEXT ( 'configuration controlled 3d designs of mechanical parts and assemblies' ) ;
#311 = CC_DESIGN_APPROVAL ( #291, ( #276 ) ) ;
#312 = LINE ( 'NONE', #148, #101 ) ;
#313 = VERTEX_POINT ( 'NONE', #287 ) ;
#314 = APPROVAL_DATE_TIME ( #39, #297 ) ;
#315 = EDGE_CURVE ( 'NONE', #320, #228, #304, .T. ) ;
#316 = PRODUCT_DEFINITION_SHAPE ( 'NONE', 'NONE',  #276 ) ;
#317 = ORIENTED_EDGE ( 'NONE', *, *, #56, .F. ) ;
#318 = VERTEX_POINT ( 'NONE', #124 ) ;
#319 = CC_DESIGN_APPROVAL ( #297, ( #252 ) ) ;
#320 = VERTEX_POINT ( 'NONE', #226 ) ;
#321 = FACE_OUTER_BOUND ( 'NONE', #182, .T. ) ;
ENDSEC;
END-ISO-10303-21;
