ISO-10303-21;
HEADER;
FILE_DESCRIPTION (( 'STEP AP203' ),
    '1' );
FILE_NAME ('Web Model 43368_21022.step',
    '2022-03-16T14:25:01',
    ( '' ),
    ( '' ),
    'SwSTEP 2.0',
    'SolidWorks 2021',
    '' );
FILE_SCHEMA (( 'CONFIG_CONTROL_DESIGN' ));
ENDSEC;

DATA;
#1 = CARTESIAN_POINT ( 'NONE',  ( -10.00000000000000000, 0.000000000000000000, 0.5000000000000000000 ) ) ;
#2 = EDGE_CURVE ( 'NONE', #65, #107, #9, .T. ) ;
#3 =( NAMED_UNIT ( * ) PLANE_ANGLE_UNIT ( ) SI_UNIT ( $, .RADIAN. ) );
#4 = CC_DESIGN_APPROVAL ( #163, ( #57 ) ) ;
#5 = PERSON_AND_ORGANIZATION_ROLE ( 'creator' ) ;
#6 = PERSON_AND_ORGANIZATION_ROLE ( 'classification_officer' ) ;
#7 =( GEOMETRIC_REPRESENTATION_CONTEXT ( 3 ) GLOBAL_UNCERTAINTY_ASSIGNED_CONTEXT ( ( #80 ) ) GLOBAL_UNIT_ASSIGNED_CONTEXT ( ( #156, #3, #67 ) ) REPRESENTATION_CONTEXT ( 'NONE', 'WORKASPACE' ) );
#8 = PERSON_AND_ORGANIZATION ( #85, #126 ) ;
#9 = LINE ( 'NONE', #139, #17 ) ;
#10 = CALENDAR_DATE ( 2022, 16, 3 ) ;
#11 = EDGE_CURVE ( 'NONE', #107, #75, #40, .T. ) ;
#12 = CC_DESIGN_SECURITY_CLASSIFICATION ( #57, ( #175 ) ) ;
#13 = DIRECTION ( 'NONE',  ( 0.000000000000000000, 0.000000000000000000, 1.000000000000000000 ) ) ;
#14 = CC_DESIGN_PERSON_AND_ORGANIZATION_ASSIGNMENT ( #123, #6, ( #57 ) ) ;
#15 = PERSON_AND_ORGANIZATION ( #85, #126 ) ;
#16 = DIRECTION ( 'NONE',  ( -1.000000000000000000, 0.000000000000000000, 0.000000000000000000 ) ) ;
#17 = VECTOR ( 'NONE', #23, 1000.000000000000000 ) ;
#18 = CC_DESIGN_PERSON_AND_ORGANIZATION_ASSIGNMENT ( #56, #74, ( #144 ) ) ;
#19 = APPROVAL_ROLE ( '' ) ;
#20 = DATE_AND_TIME ( #10, #152 ) ;
#21 = DIRECTION ( 'NONE',  ( 0.000000000000000000, 0.000000000000000000, 1.000000000000000000 ) ) ;
#22 = AXIS2_PLACEMENT_3D ( 'NONE', #71, #13, #130 ) ;
#23 = DIRECTION ( 'NONE',  ( -0.000000000000000000, -0.000000000000000000, -1.000000000000000000 ) ) ;
#24 = CC_DESIGN_DATE_AND_TIME_ASSIGNMENT ( #73, #46, ( #144 ) ) ;
#25 = FACE_OUTER_BOUND ( 'NONE', #118, .T. ) ;
#26 = DIRECTION ( 'NONE',  ( -1.000000000000000000, 0.000000000000000000, 0.000000000000000000 ) ) ;
#27 = APPROVAL_PERSON_ORGANIZATION ( #15, #86, #53 ) ;
#28 = APPROVAL_DATE_TIME ( #70, #86 ) ;
#29 = CALENDAR_DATE ( 2022, 16, 3 ) ;
#30 = AXIS2_PLACEMENT_3D ( 'NONE', #174, #51, #83 ) ;
#31 = SHAPE_DEFINITION_REPRESENTATION ( #49, #165 ) ;
#32 = DIRECTION ( 'NONE',  ( 1.000000000000000000, 0.000000000000000000, 0.000000000000000000 ) ) ;
#33 = ORIENTED_EDGE ( 'NONE', *, *, #35, .F. ) ;
#34 = ORIENTED_EDGE ( 'NONE', *, *, #35, .T. ) ;
#35 = EDGE_CURVE ( 'NONE', #75, #107, #170, .T. ) ;
#36 = LOCAL_TIME ( 10, 25, 1.000000000000000000, #124 ) ;
#37 = ORIENTED_EDGE ( 'NONE', *, *, #11, .T. ) ;
#38 = CARTESIAN_POINT ( 'NONE',  ( 0.000000000000000000, 0.000000000000000000, 0.5000000000000000000 ) ) ;
#39 = AXIS2_PLACEMENT_3D ( 'NONE', #97, #143, #16 ) ;
#40 = CIRCLE ( 'NONE', #72, 10.00000000000000000 ) ;
#41 = PLANE ( 'NONE',  #22 ) ;
#42 = COORDINATED_UNIVERSAL_TIME_OFFSET ( 5, 0, .BEHIND. ) ;
#43 = APPROVAL_STATUS ( 'not_yet_approved' ) ;
#44 = PERSON_AND_ORGANIZATION ( #85, #126 ) ;
#45 = ORIENTED_EDGE ( 'NONE', *, *, #11, .F. ) ;
#46 = DATE_TIME_ROLE ( 'creation_date' ) ;
#47 = LOCAL_TIME ( 10, 25, 1.000000000000000000, #60 ) ;
#48 = EDGE_CURVE ( 'NONE', #78, #65, #109, .T. ) ;
#49 = PRODUCT_DEFINITION_SHAPE ( 'NONE', 'NONE',  #144 ) ;
#50 = DIRECTION ( 'NONE',  ( 1.000000000000000000, 0.000000000000000000, 0.000000000000000000 ) ) ;
#51 = DIRECTION ( 'NONE',  ( 0.000000000000000000, 0.000000000000000000, 1.000000000000000000 ) ) ;
#52 = LOCAL_TIME ( 10, 25, 1.000000000000000000, #58 ) ;
#53 = APPROVAL_ROLE ( '' ) ;
#54 = CARTESIAN_POINT ( 'NONE',  ( -10.00000000000000000, 0.000000000000000000, 0.5000000000000000000 ) ) ;
#55 = EDGE_CURVE ( 'NONE', #65, #78, #96, .T. ) ;
#56 = PERSON_AND_ORGANIZATION ( #85, #126 ) ;
#57 = SECURITY_CLASSIFICATION ( '', '', #164 ) ;
#58 = COORDINATED_UNIVERSAL_TIME_OFFSET ( 5, 0, .BEHIND. ) ;
#59 = DIRECTION ( 'NONE',  ( 0.000000000000000000, 0.000000000000000000, 1.000000000000000000 ) ) ;
#60 = COORDINATED_UNIVERSAL_TIME_OFFSET ( 5, 0, .BEHIND. ) ;
#61 = ORIENTED_EDGE ( 'NONE', *, *, #48, .T. ) ;
#62 = APPROVAL_PERSON_ORGANIZATION ( #8, #168, #162 ) ;
#63 = ADVANCED_FACE ( 'NONE', ( #134 ), #112, .T. ) ;
#64 = ADVANCED_FACE ( 'NONE', ( #133 ), #95, .F. ) ;
#65 = VERTEX_POINT ( 'NONE', #68 ) ;
#66 = APPLICATION_CONTEXT ( 'configuration controlled 3d designs of mechanical parts and assemblies' ) ;
#67 =( NAMED_UNIT ( * ) SI_UNIT ( $, .STERADIAN. ) SOLID_ANGLE_UNIT ( ) );
#68 = CARTESIAN_POINT ( 'NONE',  ( 10.00000000000000000, 1.224646799147353256E-15, 0.5000000000000000000 ) ) ;
#69 = ADVANCED_FACE ( 'NONE', ( #25 ), #81, .T. ) ;
#70 = DATE_AND_TIME ( #111, #103 ) ;
#71 = CARTESIAN_POINT ( 'NONE',  ( 0.000000000000000000, 0.000000000000000000, 0.5000000000000000000 ) ) ;
#72 = AXIS2_PLACEMENT_3D ( 'NONE', #173, #147, #32 ) ;
#73 = DATE_AND_TIME ( #76, #36 ) ;
#74 = PERSON_AND_ORGANIZATION_ROLE ( 'creator' ) ;
#75 = VERTEX_POINT ( 'NONE', #121 ) ;
#76 = CALENDAR_DATE ( 2022, 16, 3 ) ;
#77 = AXIS2_PLACEMENT_3D ( 'NONE', #120, #141, #119 ) ;
#78 = VERTEX_POINT ( 'NONE', #54 ) ;
#79 = AXIS2_PLACEMENT_3D ( 'NONE', #38, #154, #26 ) ;
#80 = UNCERTAINTY_MEASURE_WITH_UNIT (LENGTH_MEASURE( 1.000000000000000082E-05 ), #156, 'distance_accuracy_value', 'NONE');
#81 = CYLINDRICAL_SURFACE ( 'NONE', #39, 10.00000000000000000 ) ;
#82 = APPROVAL_STATUS ( 'not_yet_approved' ) ;
#83 = DIRECTION ( 'NONE',  ( 1.000000000000000000, 0.000000000000000000, 0.000000000000000000 ) ) ;
#84 = PERSON_AND_ORGANIZATION ( #85, #126 ) ;
#85 = PERSON ( 'UNSPECIFIED', 'UNSPECIFIED', 'UNSPECIFIED', ('UNSPECIFIED'), ('UNSPECIFIED'), ('UNSPECIFIED') ) ;
#86 = APPROVAL ( #82, 'UNSPECIFIED' ) ;
#87 = CALENDAR_DATE ( 2022, 16, 3 ) ;
#88 = CC_DESIGN_DATE_AND_TIME_ASSIGNMENT ( #20, #90, ( #57 ) ) ;
#89 = DIRECTION ( 'NONE',  ( 1.000000000000000000, 0.000000000000000000, 0.000000000000000000 ) ) ;
#90 = DATE_TIME_ROLE ( 'classification_date' ) ;
#91 = EDGE_LOOP ( 'NONE', ( #94, #128, #153, #34 ) ) ;
#92 = CC_DESIGN_PERSON_AND_ORGANIZATION_ASSIGNMENT ( #136, #115, ( #175 ) ) ;
#93 = PRODUCT ( 'Web Model 43368_21022', 'Web Model 43368_21022', '', ( #132 ) ) ;
#94 = ORIENTED_EDGE ( 'NONE', *, *, #2, .F. ) ;
#95 = PLANE ( 'NONE',  #77 ) ;
#96 = CIRCLE ( 'NONE', #140, 10.00000000000000000 ) ;
#97 = CARTESIAN_POINT ( 'NONE',  ( 0.000000000000000000, 0.000000000000000000, 0.5000000000000000000 ) ) ;
#98 = APPLICATION_PROTOCOL_DEFINITION ( 'international standard', 'config_control_design', 1994, #66 ) ;
#99 = DIRECTION ( 'NONE',  ( -0.000000000000000000, -0.000000000000000000, -1.000000000000000000 ) ) ;
#100 = APPLICATION_CONTEXT ( 'configuration controlled 3d designs of mechanical parts and assemblies' ) ;
#101 = DESIGN_CONTEXT ( 'detailed design', #66, 'design' ) ;
#102 = DATE_AND_TIME ( #87, #52 ) ;
#103 = LOCAL_TIME ( 10, 25, 1.000000000000000000, #42 ) ;
#104 = ORIENTED_EDGE ( 'NONE', *, *, #55, .T. ) ;
#105 = PRODUCT_RELATED_PRODUCT_CATEGORY ( 'detail', '', ( #93 ) ) ;
#106 = DIRECTION ( 'NONE',  ( 0.000000000000000000, 0.000000000000000000, 1.000000000000000000 ) ) ;
#107 = VERTEX_POINT ( 'NONE', #129 ) ;
#108 = APPROVAL_PERSON_ORGANIZATION ( #44, #163, #19 ) ;
#109 = CIRCLE ( 'NONE', #155, 10.00000000000000000 ) ;
#110 = APPLICATION_PROTOCOL_DEFINITION ( 'international standard', 'config_control_design', 1994, #100 ) ;
#111 = CALENDAR_DATE ( 2022, 16, 3 ) ;
#112 = CYLINDRICAL_SURFACE ( 'NONE', #79, 10.00000000000000000 ) ;
#113 = COORDINATED_UNIVERSAL_TIME_OFFSET ( 5, 0, .BEHIND. ) ;
#114 = PERSON_AND_ORGANIZATION ( #85, #126 ) ;
#115 = PERSON_AND_ORGANIZATION_ROLE ( 'design_supplier' ) ;
#116 = DIRECTION ( 'NONE',  ( 1.000000000000000000, 0.000000000000000000, 0.000000000000000000 ) ) ;
#117 = AXIS2_PLACEMENT_3D ( 'NONE', #137, #59, #116 ) ;
#118 = EDGE_LOOP ( 'NONE', ( #151, #171, #37, #169 ) ) ;
#119 = DIRECTION ( 'NONE',  ( 1.000000000000000000, 0.000000000000000000, -0.000000000000000000 ) ) ;
#120 = CARTESIAN_POINT ( 'NONE',  ( 0.000000000000000000, 0.000000000000000000, 0.000000000000000000 ) ) ;
#121 = CARTESIAN_POINT ( 'NONE',  ( -10.00000000000000000, 0.000000000000000000, 0.000000000000000000 ) ) ;
#122 = EDGE_CURVE ( 'NONE', #78, #75, #158, .T. ) ;
#123 = PERSON_AND_ORGANIZATION ( #85, #126 ) ;
#124 = COORDINATED_UNIVERSAL_TIME_OFFSET ( 5, 0, .BEHIND. ) ;
#125 = EDGE_LOOP ( 'NONE', ( #33, #45 ) ) ;
#126 = ORGANIZATION ( 'UNSPECIFIED', 'UNSPECIFIED', '' ) ;
#127 = CC_DESIGN_PERSON_AND_ORGANIZATION_ASSIGNMENT ( #84, #161, ( #93 ) ) ;
#128 = ORIENTED_EDGE ( 'NONE', *, *, #48, .F. ) ;
#129 = CARTESIAN_POINT ( 'NONE',  ( 10.00000000000000000, 1.224646799147353256E-15, 0.000000000000000000 ) ) ;
#130 = DIRECTION ( 'NONE',  ( 1.000000000000000000, 0.000000000000000000, -0.000000000000000000 ) ) ;
#131 = CC_DESIGN_APPROVAL ( #168, ( #175 ) ) ;
#132 = MECHANICAL_CONTEXT ( 'NONE', #100, 'mechanical' ) ;
#133 = FACE_OUTER_BOUND ( 'NONE', #125, .T. ) ;
#134 = FACE_OUTER_BOUND ( 'NONE', #91, .T. ) ;
#135 = VECTOR ( 'NONE', #99, 1000.000000000000000 ) ;
#136 = PERSON_AND_ORGANIZATION ( #85, #126 ) ;
#137 = CARTESIAN_POINT ( 'NONE',  ( 0.000000000000000000, 0.000000000000000000, 0.000000000000000000 ) ) ;
#138 = APPROVAL_STATUS ( 'not_yet_approved' ) ;
#139 = CARTESIAN_POINT ( 'NONE',  ( 10.00000000000000000, 1.224646799147353256E-15, 0.5000000000000000000 ) ) ;
#140 = AXIS2_PLACEMENT_3D ( 'NONE', #148, #21, #50 ) ;
#141 = DIRECTION ( 'NONE',  ( 0.000000000000000000, 0.000000000000000000, 1.000000000000000000 ) ) ;
#142 = FACE_OUTER_BOUND ( 'NONE', #167, .T. ) ;
#143 = DIRECTION ( 'NONE',  ( -0.000000000000000000, -0.000000000000000000, -1.000000000000000000 ) ) ;
#144 = PRODUCT_DEFINITION ( 'UNKNOWN', '', #175, #101 ) ;
#145 = APPROVAL_DATE_TIME ( #102, #168 ) ;
#146 = APPROVAL_DATE_TIME ( #149, #163 ) ;
#147 = DIRECTION ( 'NONE',  ( 0.000000000000000000, 0.000000000000000000, 1.000000000000000000 ) ) ;
#148 = CARTESIAN_POINT ( 'NONE',  ( 0.000000000000000000, 0.000000000000000000, 0.5000000000000000000 ) ) ;
#149 = DATE_AND_TIME ( #29, #47 ) ;
#150 = CLOSED_SHELL ( 'NONE', ( #69, #63, #160, #64 ) ) ;
#151 = ORIENTED_EDGE ( 'NONE', *, *, #55, .F. ) ;
#152 = LOCAL_TIME ( 10, 25, 1.000000000000000000, #113 ) ;
#153 = ORIENTED_EDGE ( 'NONE', *, *, #122, .T. ) ;
#154 = DIRECTION ( 'NONE',  ( -0.000000000000000000, -0.000000000000000000, -1.000000000000000000 ) ) ;
#155 = AXIS2_PLACEMENT_3D ( 'NONE', #166, #106, #89 ) ;
#156 =( LENGTH_UNIT ( ) NAMED_UNIT ( * ) SI_UNIT ( .MILLI., .METRE. ) );
#157 = CC_DESIGN_PERSON_AND_ORGANIZATION_ASSIGNMENT ( #114, #5, ( #175 ) ) ;
#158 = LINE ( 'NONE', #1, #135 ) ;
#159 = CC_DESIGN_APPROVAL ( #86, ( #144 ) ) ;
#160 = ADVANCED_FACE ( 'NONE', ( #142 ), #41, .T. ) ;
#161 = PERSON_AND_ORGANIZATION_ROLE ( 'design_owner' ) ;
#162 = APPROVAL_ROLE ( '' ) ;
#163 = APPROVAL ( #138, 'UNSPECIFIED' ) ;
#164 = SECURITY_CLASSIFICATION_LEVEL ( 'unclassified' ) ;
#165 = ADVANCED_BREP_SHAPE_REPRESENTATION ( 'Web Model 43368_21022', ( #172, #30 ), #7 ) ;
#166 = CARTESIAN_POINT ( 'NONE',  ( 0.000000000000000000, 0.000000000000000000, 0.5000000000000000000 ) ) ;
#167 = EDGE_LOOP ( 'NONE', ( #61, #104 ) ) ;
#168 = APPROVAL ( #43, 'UNSPECIFIED' ) ;
#169 = ORIENTED_EDGE ( 'NONE', *, *, #122, .F. ) ;
#170 = CIRCLE ( 'NONE', #117, 10.00000000000000000 ) ;
#171 = ORIENTED_EDGE ( 'NONE', *, *, #2, .T. ) ;
#172 = MANIFOLD_SOLID_BREP ( 'Boss-Extrude1', #150 ) ;
#173 = CARTESIAN_POINT ( 'NONE',  ( 0.000000000000000000, 0.000000000000000000, 0.000000000000000000 ) ) ;
#174 = CARTESIAN_POINT ( 'NONE',  ( 0.000000000000000000, 0.000000000000000000, 0.000000000000000000 ) ) ;
#175 = PRODUCT_DEFINITION_FORMATION_WITH_SPECIFIED_SOURCE ( 'ANY', '', #93, .NOT_KNOWN. ) ;
ENDSEC;
END-ISO-10303-21;
