ISO-10303-21;
HEADER;
FILE_DESCRIPTION (( 'STEP AP214' ),
    '1' );
FILE_NAME ('4905-E0W.STEP',
    '2009-12-21T17:15:56',
    ( ' ' ),
    ( ' ' ),
    'SwSTEP 2.0',
    'SolidWorks 2009',
    '' );
FILE_SCHEMA (( 'AUTOMOTIVE_DESIGN' ));
ENDSEC;

DATA;
#1 = CARTESIAN_POINT ( 'NONE',  ( 0.0000000000000000000, 0.0000000000000000000, 0.0000000000000000000 ) ) ;
#2 = AXIS2_PLACEMENT_3D ( 'NONE', #1, #3, #4 ) ;
#3 = DIRECTION ( 'NONE',  ( 0.0000000000000000000, 0.0000000000000000000, 1.000000000000000000 ) ) ;
#4 = DIRECTION ( 'NONE',  ( 1.000000000000000000, 0.0000000000000000000, 0.0000000000000000000 ) ) ;
#5 = APPLICATION_PROTOCOL_DEFINITION ( 'draft international standard', 'automotive_design', 1998, #6 ) ;
#6 = APPLICATION_CONTEXT ( 'automotive_design' ) ;
#7 = PRODUCT_RELATED_PRODUCT_CATEGORY ( 'part', '', ( #12 ) ) ;
#8 = PRODUCT_DEFINITION_FORMATION_WITH_SPECIFIED_SOURCE ( 'ANY', '', #12, .NOT_KNOWN. ) ;
#9 = PRODUCT_DEFINITION ( 'UNKNOWN', '', #8, #10 ) ;
#10 = PRODUCT_DEFINITION_CONTEXT ( 'detailed design', #6, 'design' ) ;
#11 = APPLICATION_CONTEXT ( 'automotive_design' ) ;
#12 = PRODUCT ( '4905-E0W', '4905-E0W', '', ( #13 ) ) ;
#13 = PRODUCT_CONTEXT ( 'NONE', #11, 'mechanical' ) ;
#14 = APPLICATION_PROTOCOL_DEFINITION ( 'draft international standard', 'automotive_design', 1998, #11 ) ;
#15 = PRODUCT_DEFINITION_SHAPE ( 'NONE', 'NONE',  #9 ) ;
#16 = SHAPE_DEFINITION_REPRESENTATION ( #15, #29 ) ;
#17 =( NAMED_UNIT ( * ) PLANE_ANGLE_UNIT ( ) SI_UNIT ( $, .RADIAN. ) );
#18 =( GEOMETRIC_REPRESENTATION_CONTEXT ( 3 ) GLOBAL_UNCERTAINTY_ASSIGNED_CONTEXT ( ( #22 ) ) GLOBAL_UNIT_ASSIGNED_CONTEXT ( ( #111, #17, #20 ) ) REPRESENTATION_CONTEXT ( 'NONE', 'WORKASPACE' ) );
#19 =( NAMED_UNIT ( * ) PLANE_ANGLE_UNIT ( ) SI_UNIT ( $, .RADIAN. ) );
#20 =( NAMED_UNIT ( * ) SI_UNIT ( $, .STERADIAN. ) SOLID_ANGLE_UNIT ( ) );
#21 =( NAMED_UNIT ( * ) SI_UNIT ( $, .STERADIAN. ) SOLID_ANGLE_UNIT ( ) );
#22 = UNCERTAINTY_MEASURE_WITH_UNIT (LENGTH_MEASURE( 1.000000000000000100E-005 ), #111, 'distance_accuracy_value', 'NONE');
#23 = UNCERTAINTY_MEASURE_WITH_UNIT (LENGTH_MEASURE( 1.000000000000000100E-005 ), #289, 'distance_accuracy_value', 'NONE');
#24 =( NAMED_UNIT ( * ) SI_UNIT ( $, .STERADIAN. ) SOLID_ANGLE_UNIT ( ) );
#25 =( GEOMETRIC_REPRESENTATION_CONTEXT ( 3 ) GLOBAL_UNCERTAINTY_ASSIGNED_CONTEXT ( ( #23 ) ) GLOBAL_UNIT_ASSIGNED_CONTEXT ( ( #289, #19, #21 ) ) REPRESENTATION_CONTEXT ( 'NONE', 'WORKASPACE' ) );
#26 = PRESENTATION_LAYER_ASSIGNMENT (  '', '', ( #27 ) ) ;
#27 = STYLED_ITEM ( 'NONE', ( #28 ), #29 ) ;
#28 = PRESENTATION_STYLE_ASSIGNMENT (( #30 ) ) ;
#29 = ADVANCED_BREP_SHAPE_REPRESENTATION ( '4905-E0W', ( #96, #2 ), #25 ) ;
#30 = SURFACE_STYLE_USAGE ( .BOTH. , #31 ) ;
#31 = SURFACE_SIDE_STYLE ('',( #32 ) ) ;
#32 = SURFACE_STYLE_FILL_AREA ( #33 ) ;
#33 = FILL_AREA_STYLE ('',( #34 ) ) ;
#34 = FILL_AREA_STYLE_COLOUR ( '', #35 ) ;
#35 = COLOUR_RGB ( '',0.7960784313725489700, 0.8235294117647058400, 0.9372549019607843100 ) ;
#36 =( NAMED_UNIT ( * ) PLANE_ANGLE_UNIT ( ) SI_UNIT ( $, .RADIAN. ) );
#37 = MECHANICAL_DESIGN_GEOMETRIC_PRESENTATION_REPRESENTATION (  '', ( #27 ), #39 ) ;
#38 =( LENGTH_UNIT ( ) NAMED_UNIT ( * ) SI_UNIT ( .MILLI., .METRE. ) );
#39 =( GEOMETRIC_REPRESENTATION_CONTEXT ( 3 ) GLOBAL_UNCERTAINTY_ASSIGNED_CONTEXT ( ( #40 ) ) GLOBAL_UNIT_ASSIGNED_CONTEXT ( ( #38, #36, #24 ) ) REPRESENTATION_CONTEXT ( 'NONE', 'WORKASPACE' ) );
#40 = UNCERTAINTY_MEASURE_WITH_UNIT (LENGTH_MEASURE( 1.000000000000000100E-005 ), #38, 'distance_accuracy_value', 'NONE');
#41 =( NAMED_UNIT ( * ) PLANE_ANGLE_UNIT ( ) SI_UNIT ( $, .RADIAN. ) );
#42 =( LENGTH_UNIT ( ) NAMED_UNIT ( * ) SI_UNIT ( .MILLI., .METRE. ) );
#43 = MECHANICAL_DESIGN_GEOMETRIC_PRESENTATION_REPRESENTATION (  '', ( #45 ), #64 ) ;
#44 = PRESENTATION_LAYER_ASSIGNMENT (  '', '', ( #45 ) ) ;
#45 = STYLED_ITEM ( 'NONE', ( #46 ), #108 ) ;
#46 = PRESENTATION_STYLE_ASSIGNMENT (( #47 ) ) ;
#47 = SURFACE_STYLE_USAGE ( .BOTH. , #48 ) ;
#48 = SURFACE_SIDE_STYLE ('',( #49 ) ) ;
#49 = SURFACE_STYLE_FILL_AREA ( #50 ) ;
#50 = FILL_AREA_STYLE ('',( #58 ) ) ;
#51 = COLOUR_RGB ( '',0.9568627450980391500, 0.9490196078431372100, 0.9607843137254902200 ) ;
#52 = FACE_OUTER_BOUND ( 'NONE', #104, .T. ) ;
#53 = DIRECTION ( 'NONE',  ( 1.000000000000000000, 0.0000000000000000000, 0.0000000000000000000 ) ) ;
#54 = DIRECTION ( 'NONE',  ( -0.0000000000000000000, -0.0000000000000000000, 1.000000000000000000 ) ) ;
#55 = CARTESIAN_POINT ( 'NONE',  ( 0.0000000000000000000, 0.0000000000000000000, 1.934574508044651300 ) ) ;
#56 = AXIS2_PLACEMENT_3D ( 'NONE', #55, #54, #53 ) ;
#57 = CIRCLE ( 'NONE', #56, 12.70000000000000100 ) ;
#58 = FILL_AREA_STYLE_COLOUR ( '', #51 ) ;
#59 = CARTESIAN_POINT ( 'NONE',  ( -12.70000000000000100, 1.555250069354419300E-015, 1.934574508044651300 ) ) ;
#60 = DIRECTION ( 'NONE',  ( -1.000000000000000000, 0.0000000000000000000, 0.0000000000000000000 ) ) ;
#61 = CARTESIAN_POINT ( 'NONE',  ( 0.0000000000000000000, 0.0000000000000000000, -97.25569719235952000 ) ) ;
#62 = AXIS2_PLACEMENT_3D ( 'NONE', #61, #60, #90 ) ;
#63 = SPHERICAL_SURFACE ( 'NONE', #62, 100.0000000000000000 ) ;
#64 =( GEOMETRIC_REPRESENTATION_CONTEXT ( 3 ) GLOBAL_UNCERTAINTY_ASSIGNED_CONTEXT ( ( #65 ) ) GLOBAL_UNIT_ASSIGNED_CONTEXT ( ( #42, #41, #66 ) ) REPRESENTATION_CONTEXT ( 'NONE', 'WORKASPACE' ) );
#65 = UNCERTAINTY_MEASURE_WITH_UNIT (LENGTH_MEASURE( 1.000000000000000100E-005 ), #42, 'distance_accuracy_value', 'NONE');
#66 =( NAMED_UNIT ( * ) SI_UNIT ( $, .STERADIAN. ) SOLID_ANGLE_UNIT ( ) );
#67 =( LENGTH_UNIT ( ) NAMED_UNIT ( * ) SI_UNIT ( .MILLI., .METRE. ) );
#68 = MECHANICAL_DESIGN_GEOMETRIC_PRESENTATION_REPRESENTATION (  '', ( #70 ), #151 ) ;
#69 = PRESENTATION_LAYER_ASSIGNMENT (  '', '', ( #70 ) ) ;
#70 = STYLED_ITEM ( 'NONE', ( #71 ), #155 ) ;
#71 = PRESENTATION_STYLE_ASSIGNMENT (( #72 ) ) ;
#72 = SURFACE_STYLE_USAGE ( .BOTH. , #73 ) ;
#73 = SURFACE_SIDE_STYLE ('',( #74 ) ) ;
#74 = SURFACE_STYLE_FILL_AREA ( #75 ) ;
#75 = FILL_AREA_STYLE ('',( #83 ) ) ;
#76 = COLOUR_RGB ( '',0.9568627450980391500, 0.9490196078431372100, 0.9607843137254902200 ) ;
#77 = FACE_OUTER_BOUND ( 'NONE', #162, .T. ) ;
#78 = DIRECTION ( 'NONE',  ( 0.0000000000000000000, 0.0000000000000000000, -1.000000000000000000 ) ) ;
#79 = DIRECTION ( 'NONE',  ( 1.000000000000000000, -0.0000000000000000000, 0.0000000000000000000 ) ) ;
#80 = CARTESIAN_POINT ( 'NONE',  ( 0.0000000000000000000, 0.0000000000000000000, -33.90569719235953300 ) ) ;
#81 = AXIS2_PLACEMENT_3D ( 'NONE', #80, #79, #78 ) ;
#82 = CIRCLE ( 'NONE', #81, 33.64999999999999900 ) ;
#83 = FILL_AREA_STYLE_COLOUR ( '', #76 ) ;
#84 = DIRECTION ( 'NONE',  ( 1.000000000000000000, 0.0000000000000000000, 0.0000000000000000000 ) ) ;
#85 = DIRECTION ( 'NONE',  ( -0.0000000000000000000, -0.0000000000000000000, 1.000000000000000000 ) ) ;
#86 = CARTESIAN_POINT ( 'NONE',  ( 0.0000000000000000000, 0.0000000000000000000, -2.744302807640479200 ) ) ;
#87 = AXIS2_PLACEMENT_3D ( 'NONE', #86, #85, #84 ) ;
#88 = CIRCLE ( 'NONE', #87, 12.70000000000000100 ) ;
#89 = CARTESIAN_POINT ( 'NONE',  ( 12.70000000000000100, 0.0000000000000000000, 1.934574508044651300 ) ) ;
#90 = DIRECTION ( 'NONE',  ( 0.0000000000000000000, 1.000000000000000000, 0.0000000000000000000 ) ) ;
#91 = UNCERTAINTY_MEASURE_WITH_UNIT (LENGTH_MEASURE( 1.000000000000000100E-005 ), #163, 'distance_accuracy_value', 'NONE');
#92 =( NAMED_UNIT ( * ) SI_UNIT ( $, .STERADIAN. ) SOLID_ANGLE_UNIT ( ) );
#93 =( NAMED_UNIT ( * ) PLANE_ANGLE_UNIT ( ) SI_UNIT ( $, .RADIAN. ) );
#94 = ORIENTED_EDGE ( 'NONE', *, *, #213, .F. ) ;
#95 = ORIENTED_EDGE ( 'NONE', *, *, #229, .F. ) ;
#96 = MANIFOLD_SOLID_BREP ( 'NONE', #180 ) ;
#97 = EDGE_LOOP ( 'NONE', ( #99, #209, #212, #141 ) ) ;
#98 = ADVANCED_FACE ( 'NONE', ( #202 ), #186, .F. ) ;
#99 = ORIENTED_EDGE ( 'NONE', *, *, #100, .F. ) ;
#100 = EDGE_CURVE ( 'NONE', #101, #208, #185, .T. ) ;
#101 = VERTEX_POINT ( 'NONE', #135 ) ;
#102 = EDGE_CURVE ( 'NONE', #208, #109, #134, .T. ) ;
#103 = VERTEX_POINT ( 'NONE', #59 ) ;
#104 = EDGE_LOOP ( 'NONE', ( #129, #128, #158, #226 ) ) ;
#105 = ORIENTED_EDGE ( 'NONE', *, *, #221, .F. ) ;
#106 = ORIENTED_EDGE ( 'NONE', *, *, #107, .F. ) ;
#107 = EDGE_CURVE ( 'NONE', #217, #103, #57, .T. ) ;
#108 = ADVANCED_FACE ( 'NONE', ( #52 ), #63, .T. ) ;
#109 = VERTEX_POINT ( 'NONE', #89 ) ;
#110 = EDGE_CURVE ( 'NONE', #208, #207, #88, .T. ) ;
#111 =( LENGTH_UNIT ( ) NAMED_UNIT ( * ) SI_UNIT ( .MILLI., .METRE. ) );
#112 = MECHANICAL_DESIGN_GEOMETRIC_PRESENTATION_REPRESENTATION (  '', ( #114 ), #18 ) ;
#113 = PRESENTATION_LAYER_ASSIGNMENT (  '', '', ( #114 ) ) ;
#114 = STYLED_ITEM ( 'NONE', ( #115 ), #174 ) ;
#115 = PRESENTATION_STYLE_ASSIGNMENT (( #116 ) ) ;
#116 = SURFACE_STYLE_USAGE ( .BOTH. , #117 ) ;
#117 = SURFACE_SIDE_STYLE ('',( #118 ) ) ;
#118 = SURFACE_STYLE_FILL_AREA ( #119 ) ;
#119 = FILL_AREA_STYLE ('',( #144 ) ) ;
#120 = COLOUR_RGB ( '',0.9568627450980391500, 0.9490196078431372100, 0.9607843137254902200 ) ;
#121 = FACE_OUTER_BOUND ( 'NONE', #175, .T. ) ;
#122 = CARTESIAN_POINT ( 'NONE',  ( -1.555250069354418500E-015, -12.69999999999999200, 1.934574508044653700 ) ) ;
#123 = DIRECTION ( 'NONE',  ( 1.000000000000000000, 0.0000000000000000000, 0.0000000000000000000 ) ) ;
#124 = DIRECTION ( 'NONE',  ( -0.0000000000000000000, -0.0000000000000000000, 1.000000000000000000 ) ) ;
#125 = EDGE_CURVE ( 'NONE', #207, #211, #82, .T. ) ;
#126 = ORIENTED_EDGE ( 'NONE', *, *, #224, .F. ) ;
#127 = ORIENTED_EDGE ( 'NONE', *, *, #157, .T. ) ;
#128 = ORIENTED_EDGE ( 'NONE', *, *, #225, .T. ) ;
#129 = ORIENTED_EDGE ( 'NONE', *, *, #107, .T. ) ;
#130 = ORIENTED_EDGE ( 'NONE', *, *, #228, .T. ) ;
#131 = DIRECTION ( 'NONE',  ( -0.0000000000000000000, -0.0000000000000000000, 1.000000000000000000 ) ) ;
#132 = VECTOR ( 'NONE', #131, 1000.000000000000000 ) ;
#133 = CARTESIAN_POINT ( 'NONE',  ( 12.70000000000000100, 0.0000000000000000000, 10.14940656248153400 ) ) ;
#134 = LINE ( 'NONE', #133, #132 ) ;
#135 = CARTESIAN_POINT ( 'NONE',  ( -1.555250069354419300E-015, -12.69999999999999900, -2.744302807640481000 ) ) ;
#136 = DIRECTION ( 'NONE',  ( 1.000000000000000000, 0.0000000000000000000, 0.0000000000000000000 ) ) ;
#137 = DIRECTION ( 'NONE',  ( -0.0000000000000000000, -0.0000000000000000000, 1.000000000000000000 ) ) ;
#138 = CARTESIAN_POINT ( 'NONE',  ( 0.0000000000000000000, 0.0000000000000000000, -2.744302807640479200 ) ) ;
#139 = AXIS2_PLACEMENT_3D ( 'NONE', #138, #137, #136 ) ;
#140 = ORIENTED_EDGE ( 'NONE', *, *, #102, .T. ) ;
#141 = ORIENTED_EDGE ( 'NONE', *, *, #110, .F. ) ;
#142 = CARTESIAN_POINT ( 'NONE',  ( 0.0000000000000000000, 0.0000000000000000000, 1.934574508044651300 ) ) ;
#143 = AXIS2_PLACEMENT_3D ( 'NONE', #142, #124, #123 ) ;
#144 = FILL_AREA_STYLE_COLOUR ( '', #120 ) ;
#145 = DIRECTION ( 'NONE',  ( 1.000000000000000000, 0.0000000000000000000, 0.0000000000000000000 ) ) ;
#146 = DIRECTION ( 'NONE',  ( -0.0000000000000000000, -0.0000000000000000000, 1.000000000000000000 ) ) ;
#147 = CARTESIAN_POINT ( 'NONE',  ( 0.0000000000000000000, 0.0000000000000000000, 10.14940656248153400 ) ) ;
#148 = CIRCLE ( 'NONE', #143, 12.70000000000000100 ) ;
#149 = AXIS2_PLACEMENT_3D ( 'NONE', #147, #146, #145 ) ;
#150 = CYLINDRICAL_SURFACE ( 'NONE', #149, 12.70000000000000100 ) ;
#151 =( GEOMETRIC_REPRESENTATION_CONTEXT ( 3 ) GLOBAL_UNCERTAINTY_ASSIGNED_CONTEXT ( ( #152 ) ) GLOBAL_UNIT_ASSIGNED_CONTEXT ( ( #67, #154, #153 ) ) REPRESENTATION_CONTEXT ( 'NONE', 'WORKASPACE' ) );
#152 = UNCERTAINTY_MEASURE_WITH_UNIT (LENGTH_MEASURE( 1.000000000000000100E-005 ), #67, 'distance_accuracy_value', 'NONE');
#153 =( NAMED_UNIT ( * ) SI_UNIT ( $, .STERADIAN. ) SOLID_ANGLE_UNIT ( ) );
#154 =( NAMED_UNIT ( * ) PLANE_ANGLE_UNIT ( ) SI_UNIT ( $, .RADIAN. ) );
#155 = ADVANCED_FACE ( 'NONE', ( #77 ), #150, .T. ) ;
#156 = ORIENTED_EDGE ( 'NONE', *, *, #221, .T. ) ;
#157 = EDGE_CURVE ( 'NONE', #160, #109, #148, .T. ) ;
#158 = ORIENTED_EDGE ( 'NONE', *, *, #224, .T. ) ;
#159 = EDGE_LOOP ( 'NONE', ( #126, #127, #156, #130 ) ) ;
#160 = VERTEX_POINT ( 'NONE', #122 ) ;
#161 = ORIENTED_EDGE ( 'NONE', *, *, #229, .T. ) ;
#162 = EDGE_LOOP ( 'NONE', ( #215, #216, #214, #140, #179, #178 ) ) ;
#163 =( LENGTH_UNIT ( ) NAMED_UNIT ( * ) SI_UNIT ( .MILLI., .METRE. ) );
#164 = MECHANICAL_DESIGN_GEOMETRIC_PRESENTATION_REPRESENTATION (  '', ( #166 ), #203 ) ;
#165 = PRESENTATION_LAYER_ASSIGNMENT (  '', '', ( #166 ) ) ;
#166 = STYLED_ITEM ( 'NONE', ( #167 ), #96 ) ;
#167 = PRESENTATION_STYLE_ASSIGNMENT (( #168 ) ) ;
#168 = SURFACE_STYLE_USAGE ( .BOTH. , #169 ) ;
#169 = SURFACE_SIDE_STYLE ('',( #170 ) ) ;
#170 = SURFACE_STYLE_FILL_AREA ( #171 ) ;
#171 = FILL_AREA_STYLE ('',( #172 ) ) ;
#172 = FILL_AREA_STYLE_COLOUR ( '', #173 ) ;
#173 = COLOUR_RGB ( '',0.7960784313725489700, 0.8235294117647058400, 0.9372549019607843100 ) ;
#174 = ADVANCED_FACE ( 'NONE', ( #121 ), #322, .F. ) ;
#175 = EDGE_LOOP ( 'NONE', ( #176, #94, #95, #177 ) ) ;
#176 = ORIENTED_EDGE ( 'NONE', *, *, #210, .F. ) ;
#177 = ORIENTED_EDGE ( 'NONE', *, *, #125, .T. ) ;
#178 = ORIENTED_EDGE ( 'NONE', *, *, #225, .F. ) ;
#179 = ORIENTED_EDGE ( 'NONE', *, *, #157, .F. ) ;
#180 = CLOSED_SHELL ( 'NONE', ( #98, #205, #108, #223, #155, #174 ) ) ;
#181 = DIRECTION ( 'NONE',  ( 0.0000000000000000000, 1.000000000000000000, 0.0000000000000000000 ) ) ;
#182 = DIRECTION ( 'NONE',  ( -1.000000000000000000, 0.0000000000000000000, 0.0000000000000000000 ) ) ;
#183 = CARTESIAN_POINT ( 'NONE',  ( 0.0000000000000000000, 0.0000000000000000000, -33.90569719235953300 ) ) ;
#184 = AXIS2_PLACEMENT_3D ( 'NONE', #183, #182, #181 ) ;
#185 = CIRCLE ( 'NONE', #139, 12.70000000000000100 ) ;
#186 = SPHERICAL_SURFACE ( 'NONE', #184, 33.64999999999999900 ) ;
#187 =( GEOMETRIC_REPRESENTATION_CONTEXT ( 3 ) GLOBAL_UNCERTAINTY_ASSIGNED_CONTEXT ( ( #188 ) ) GLOBAL_UNIT_ASSIGNED_CONTEXT ( ( #191, #190, #189 ) ) REPRESENTATION_CONTEXT ( 'NONE', 'WORKASPACE' ) );
#188 = UNCERTAINTY_MEASURE_WITH_UNIT (LENGTH_MEASURE( 1.000000000000000100E-005 ), #191, 'distance_accuracy_value', 'NONE');
#189 =( NAMED_UNIT ( * ) SI_UNIT ( $, .STERADIAN. ) SOLID_ANGLE_UNIT ( ) );
#190 =( NAMED_UNIT ( * ) PLANE_ANGLE_UNIT ( ) SI_UNIT ( $, .RADIAN. ) );
#191 =( LENGTH_UNIT ( ) NAMED_UNIT ( * ) SI_UNIT ( .MILLI., .METRE. ) );
#192 = MECHANICAL_DESIGN_GEOMETRIC_PRESENTATION_REPRESENTATION (  '', ( #194 ), #187 ) ;
#193 = PRESENTATION_LAYER_ASSIGNMENT (  '', '', ( #194 ) ) ;
#194 = STYLED_ITEM ( 'NONE', ( #195 ), #98 ) ;
#195 = PRESENTATION_STYLE_ASSIGNMENT (( #196 ) ) ;
#196 = SURFACE_STYLE_USAGE ( .BOTH. , #197 ) ;
#197 = SURFACE_SIDE_STYLE ('',( #198 ) ) ;
#198 = SURFACE_STYLE_FILL_AREA ( #199 ) ;
#199 = FILL_AREA_STYLE ('',( #200 ) ) ;
#200 = FILL_AREA_STYLE_COLOUR ( '', #201 ) ;
#201 = COLOUR_RGB ( '',0.9568627450980391500, 0.9490196078431372100, 0.9607843137254902200 ) ;
#202 = FACE_OUTER_BOUND ( 'NONE', #97, .T. ) ;
#203 =( GEOMETRIC_REPRESENTATION_CONTEXT ( 3 ) GLOBAL_UNCERTAINTY_ASSIGNED_CONTEXT ( ( #91 ) ) GLOBAL_UNIT_ASSIGNED_CONTEXT ( ( #163, #93, #92 ) ) REPRESENTATION_CONTEXT ( 'NONE', 'WORKASPACE' ) );
#204 = EDGE_LOOP ( 'NONE', ( #206, #161, #220, #106, #105, #222 ) ) ;
#205 = ADVANCED_FACE ( 'NONE', ( #266 ), #321, .T. ) ;
#206 = ORIENTED_EDGE ( 'NONE', *, *, #110, .T. ) ;
#207 = VERTEX_POINT ( 'NONE', #272 ) ;
#208 = VERTEX_POINT ( 'NONE', #271 ) ;
#209 = ORIENTED_EDGE ( 'NONE', *, *, #210, .T. ) ;
#210 = EDGE_CURVE ( 'NONE', #101, #211, #309, .T. ) ;
#211 = VERTEX_POINT ( 'NONE', #287 ) ;
#212 = ORIENTED_EDGE ( 'NONE', *, *, #125, .F. ) ;
#213 = EDGE_CURVE ( 'NONE', #218, #101, #286, .T. ) ;
#214 = ORIENTED_EDGE ( 'NONE', *, *, #100, .T. ) ;
#215 = ORIENTED_EDGE ( 'NONE', *, *, #219, .F. ) ;
#216 = ORIENTED_EDGE ( 'NONE', *, *, #213, .T. ) ;
#217 = VERTEX_POINT ( 'NONE', #252 ) ;
#218 = VERTEX_POINT ( 'NONE', #251 ) ;
#219 = EDGE_CURVE ( 'NONE', #218, #103, #250, .T. ) ;
#220 = ORIENTED_EDGE ( 'NONE', *, *, #219, .T. ) ;
#221 = EDGE_CURVE ( 'NONE', #109, #217, #279, .T. ) ;
#222 = ORIENTED_EDGE ( 'NONE', *, *, #102, .F. ) ;
#223 = ADVANCED_FACE ( 'NONE', ( #274 ), #263, .T. ) ;
#224 = EDGE_CURVE ( 'NONE', #160, #227, #248, .T. ) ;
#225 = EDGE_CURVE ( 'NONE', #103, #160, #241, .T. ) ;
#226 = ORIENTED_EDGE ( 'NONE', *, *, #228, .F. ) ;
#227 = VERTEX_POINT ( 'NONE', #236 ) ;
#228 = EDGE_CURVE ( 'NONE', #217, #227, #234, .T. ) ;
#229 = EDGE_CURVE ( 'NONE', #207, #218, #293, .T. ) ;
#230 = DIRECTION ( 'NONE',  ( 0.0000000000000000000, 0.0000000000000000000, -1.000000000000000000 ) ) ;
#231 = DIRECTION ( 'NONE',  ( 1.000000000000000000, 0.0000000000000000000, 0.0000000000000000000 ) ) ;
#232 = CARTESIAN_POINT ( 'NONE',  ( 0.0000000000000000000, 0.0000000000000000000, -97.25569719235952000 ) ) ;
#233 = AXIS2_PLACEMENT_3D ( 'NONE', #232, #231, #230 ) ;
#234 = CIRCLE ( 'NONE', #233, 100.0000000000000000 ) ;
#235 = CARTESIAN_POINT ( 'NONE',  ( 0.0000000000000000000, 0.0000000000000000000, -2.744302807640479200 ) ) ;
#236 = CARTESIAN_POINT ( 'NONE',  ( 0.0000000000000000000, 6.123031769111886300E-015, 2.744302807640486300 ) ) ;
#237 = DIRECTION ( 'NONE',  ( 1.000000000000000000, 0.0000000000000000000, 0.0000000000000000000 ) ) ;
#238 = DIRECTION ( 'NONE',  ( -0.0000000000000000000, -0.0000000000000000000, 1.000000000000000000 ) ) ;
#239 = CARTESIAN_POINT ( 'NONE',  ( 0.0000000000000000000, 0.0000000000000000000, 1.934574508044651300 ) ) ;
#240 = AXIS2_PLACEMENT_3D ( 'NONE', #239, #238, #237 ) ;
#241 = CIRCLE ( 'NONE', #240, 12.70000000000000100 ) ;
#242 = DIRECTION ( 'NONE',  ( -1.224606353822377300E-016, -1.000000000000000000, 0.0000000000000000000 ) ) ;
#243 = DIRECTION ( 'NONE',  ( -1.000000000000000000, 1.224606353822377300E-016, 0.0000000000000000000 ) ) ;
#244 = CARTESIAN_POINT ( 'NONE',  ( 0.0000000000000000000, 0.0000000000000000000, -97.25569719235952000 ) ) ;
#245 = AXIS2_PLACEMENT_3D ( 'NONE', #244, #243, #242 ) ;
#246 = DIRECTION ( 'NONE',  ( 0.0000000000000000000, 1.000000000000000000, 0.0000000000000000000 ) ) ;
#247 = DIRECTION ( 'NONE',  ( -1.000000000000000000, 0.0000000000000000000, 0.0000000000000000000 ) ) ;
#248 = CIRCLE ( 'NONE', #245, 100.0000000000000000 ) ;
#249 = CARTESIAN_POINT ( 'NONE',  ( -12.70000000000000100, 1.555250069354419300E-015, 10.14940656248153400 ) ) ;
#250 = LINE ( 'NONE', #249, #282 ) ;
#251 = CARTESIAN_POINT ( 'NONE',  ( -12.70000000000000100, 1.555250069354419300E-015, -2.744302807640479200 ) ) ;
#252 = CARTESIAN_POINT ( 'NONE',  ( 0.0000000000000000000, 12.69999999999999200, 1.934574508044653700 ) ) ;
#253 = DIRECTION ( 'NONE',  ( 1.000000000000000000, 0.0000000000000000000, 0.0000000000000000000 ) ) ;
#254 = DIRECTION ( 'NONE',  ( -0.0000000000000000000, -0.0000000000000000000, 1.000000000000000000 ) ) ;
#255 = CARTESIAN_POINT ( 'NONE',  ( 0.0000000000000000000, 0.0000000000000000000, -2.744302807640479200 ) ) ;
#256 = STYLED_ITEM ( 'NONE', ( #257 ), #205 ) ;
#257 = PRESENTATION_STYLE_ASSIGNMENT (( #310 ) ) ;
#258 =( LENGTH_UNIT ( ) NAMED_UNIT ( * ) SI_UNIT ( .MILLI., .METRE. ) );
#259 = SURFACE_STYLE_FILL_AREA ( #260 ) ;
#260 = FILL_AREA_STYLE ('',( #315 ) ) ;
#261 = CARTESIAN_POINT ( 'NONE',  ( 0.0000000000000000000, 0.0000000000000000000, -97.25569719235952000 ) ) ;
#262 = AXIS2_PLACEMENT_3D ( 'NONE', #261, #247, #246 ) ;
#263 = SPHERICAL_SURFACE ( 'NONE', #262, 100.0000000000000000 ) ;
#264 =( GEOMETRIC_REPRESENTATION_CONTEXT ( 3 ) GLOBAL_UNCERTAINTY_ASSIGNED_CONTEXT ( ( #265 ) ) GLOBAL_UNIT_ASSIGNED_CONTEXT ( ( #297, #296, #295 ) ) REPRESENTATION_CONTEXT ( 'NONE', 'WORKASPACE' ) );
#265 = UNCERTAINTY_MEASURE_WITH_UNIT (LENGTH_MEASURE( 1.000000000000000100E-005 ), #297, 'distance_accuracy_value', 'NONE');
#266 = FACE_OUTER_BOUND ( 'NONE', #204, .T. ) ;
#267 = DIRECTION ( 'NONE',  ( -0.0000000000000000000, -0.0000000000000000000, 1.000000000000000000 ) ) ;
#268 = CARTESIAN_POINT ( 'NONE',  ( 0.0000000000000000000, 0.0000000000000000000, 10.14940656248153400 ) ) ;
#269 = COLOUR_RGB ( '',0.9568627450980391500, 0.9490196078431372100, 0.9607843137254902200 ) ;
#270 = DIRECTION ( 'NONE',  ( 1.000000000000000000, 0.0000000000000000000, 0.0000000000000000000 ) ) ;
#271 = CARTESIAN_POINT ( 'NONE',  ( 12.70000000000000100, 0.0000000000000000000, -2.744302807640479200 ) ) ;
#272 = CARTESIAN_POINT ( 'NONE',  ( 0.0000000000000000000, 12.69999999999999900, -2.744302807640481000 ) ) ;
#273 = COLOUR_RGB ( '',0.9568627450980391500, 0.9490196078431372100, 0.9607843137254902200 ) ;
#274 = FACE_OUTER_BOUND ( 'NONE', #159, .T. ) ;
#275 = DIRECTION ( 'NONE',  ( 1.000000000000000000, 0.0000000000000000000, 0.0000000000000000000 ) ) ;
#276 = DIRECTION ( 'NONE',  ( -0.0000000000000000000, -0.0000000000000000000, 1.000000000000000000 ) ) ;
#277 = CARTESIAN_POINT ( 'NONE',  ( 0.0000000000000000000, 0.0000000000000000000, 1.934574508044651300 ) ) ;
#278 = AXIS2_PLACEMENT_3D ( 'NONE', #277, #276, #275 ) ;
#279 = CIRCLE ( 'NONE', #278, 12.70000000000000100 ) ;
#280 = FILL_AREA_STYLE_COLOUR ( '', #273 ) ;
#281 = DIRECTION ( 'NONE',  ( -0.0000000000000000000, -0.0000000000000000000, 1.000000000000000000 ) ) ;
#282 = VECTOR ( 'NONE', #281, 1000.000000000000000 ) ;
#283 =( NAMED_UNIT ( * ) SI_UNIT ( $, .STERADIAN. ) SOLID_ANGLE_UNIT ( ) );
#284 = DIRECTION ( 'NONE',  ( 0.0000000000000000000, 1.000000000000000000, 0.0000000000000000000 ) ) ;
#285 = AXIS2_PLACEMENT_3D ( 'NONE', #255, #254, #253 ) ;
#286 = CIRCLE ( 'NONE', #285, 12.70000000000000100 ) ;
#287 = CARTESIAN_POINT ( 'NONE',  ( 0.0000000000000000000, 2.060400190306149500E-015, -0.2556971923595302600 ) ) ;
#288 = DIRECTION ( 'NONE',  ( -1.224606353822377300E-016, -1.000000000000000000, 0.0000000000000000000 ) ) ;
#289 =( LENGTH_UNIT ( ) NAMED_UNIT ( * ) SI_UNIT ( .MILLI., .METRE. ) );
#290 = DIRECTION ( 'NONE',  ( 1.000000000000000000, 0.0000000000000000000, 0.0000000000000000000 ) ) ;
#291 = DIRECTION ( 'NONE',  ( -0.0000000000000000000, -0.0000000000000000000, 1.000000000000000000 ) ) ;
#292 = AXIS2_PLACEMENT_3D ( 'NONE', #235, #291, #290 ) ;
#293 = CIRCLE ( 'NONE', #292, 12.70000000000000100 ) ;
#294 = AXIS2_PLACEMENT_3D ( 'NONE', #314, #313, #284 ) ;
#295 =( NAMED_UNIT ( * ) SI_UNIT ( $, .STERADIAN. ) SOLID_ANGLE_UNIT ( ) );
#296 =( NAMED_UNIT ( * ) PLANE_ANGLE_UNIT ( ) SI_UNIT ( $, .RADIAN. ) );
#297 =( LENGTH_UNIT ( ) NAMED_UNIT ( * ) SI_UNIT ( .MILLI., .METRE. ) );
#298 = MECHANICAL_DESIGN_GEOMETRIC_PRESENTATION_REPRESENTATION (  '', ( #300 ), #264 ) ;
#299 = PRESENTATION_LAYER_ASSIGNMENT (  '', '', ( #300 ) ) ;
#300 = STYLED_ITEM ( 'NONE', ( #301 ), #223 ) ;
#301 = PRESENTATION_STYLE_ASSIGNMENT (( #302 ) ) ;
#302 = SURFACE_STYLE_USAGE ( .BOTH. , #303 ) ;
#303 = SURFACE_SIDE_STYLE ('',( #304 ) ) ;
#304 = SURFACE_STYLE_FILL_AREA ( #305 ) ;
#305 = FILL_AREA_STYLE ('',( #280 ) ) ;
#306 = DIRECTION ( 'NONE',  ( -1.000000000000000000, 1.224606353822377300E-016, 0.0000000000000000000 ) ) ;
#307 = CARTESIAN_POINT ( 'NONE',  ( 0.0000000000000000000, 0.0000000000000000000, -33.90569719235953300 ) ) ;
#308 = AXIS2_PLACEMENT_3D ( 'NONE', #307, #306, #288 ) ;
#309 = CIRCLE ( 'NONE', #308, 33.64999999999999900 ) ;
#310 = SURFACE_STYLE_USAGE ( .BOTH. , #311 ) ;
#311 = SURFACE_SIDE_STYLE ('',( #259 ) ) ;
#312 =( NAMED_UNIT ( * ) PLANE_ANGLE_UNIT ( ) SI_UNIT ( $, .RADIAN. ) );
#313 = DIRECTION ( 'NONE',  ( -1.000000000000000000, 0.0000000000000000000, 0.0000000000000000000 ) ) ;
#314 = CARTESIAN_POINT ( 'NONE',  ( 0.0000000000000000000, 0.0000000000000000000, -33.90569719235953300 ) ) ;
#315 = FILL_AREA_STYLE_COLOUR ( '', #269 ) ;
#316 = MECHANICAL_DESIGN_GEOMETRIC_PRESENTATION_REPRESENTATION (  '', ( #256 ), #318 ) ;
#317 = PRESENTATION_LAYER_ASSIGNMENT (  '', '', ( #256 ) ) ;
#318 =( GEOMETRIC_REPRESENTATION_CONTEXT ( 3 ) GLOBAL_UNCERTAINTY_ASSIGNED_CONTEXT ( ( #319 ) ) GLOBAL_UNIT_ASSIGNED_CONTEXT ( ( #258, #312, #283 ) ) REPRESENTATION_CONTEXT ( 'NONE', 'WORKASPACE' ) );
#319 = UNCERTAINTY_MEASURE_WITH_UNIT (LENGTH_MEASURE( 1.000000000000000100E-005 ), #258, 'distance_accuracy_value', 'NONE');
#320 = AXIS2_PLACEMENT_3D ( 'NONE', #268, #267, #270 ) ;
#321 = CYLINDRICAL_SURFACE ( 'NONE', #320, 12.70000000000000100 ) ;
#322 = SPHERICAL_SURFACE ( 'NONE', #294, 33.64999999999999900 ) ;
ENDSEC;
END-ISO-10303-21;
