ISO-10303-21;
HEADER;
FILE_DESCRIPTION (( 'STEP AP203' ),
    '1' );
FILE_NAME ('Web Model 19730_19731.step',
    '2022-03-22T14:56:46',
    ( '' ),
    ( '' ),
    'SwSTEP 2.0',
    'SolidWorks 2021',
    '' );
FILE_SCHEMA (( 'CONFIG_CONTROL_DESIGN' ));
ENDSEC;

DATA;
#1 = CALENDAR_DATE ( 2022, 22, 3 ) ;
#2 = PERSON ( 'UNSPECIFIED', 'UNSPECIFIED', 'UNSPECIFIED', ('UNSPECIFIED'), ('UNSPECIFIED'), ('UNSPECIFIED') ) ;
#3 = CARTESIAN_POINT ( 'NONE',  ( 5.000000000000000000, 6.123233995736766282E-16, 1.500000000000000000 ) ) ;
#4 = APPROVAL_PERSON_ORGANIZATION ( #122, #14, #99 ) ;
#5 = DATE_AND_TIME ( #67, #97 ) ;
#6 = CARTESIAN_POINT ( 'NONE',  ( 0.000000000000000000, 0.000000000000000000, 1.500000000000000000 ) ) ;
#7 = ORIENTED_EDGE ( 'NONE', *, *, #41, .F. ) ;
#8 = ORGANIZATION ( 'UNSPECIFIED', 'UNSPECIFIED', '' ) ;
#9 = APPLICATION_PROTOCOL_DEFINITION ( 'international standard', 'config_control_design', 1994, #24 ) ;
#10 = CARTESIAN_POINT ( 'NONE',  ( 0.000000000000000000, 0.000000000000000000, 0.000000000000000000 ) ) ;
#11 = PLANE ( 'NONE',  #154 ) ;
#12 = PERSON_AND_ORGANIZATION ( #2, #8 ) ;
#13 = AXIS2_PLACEMENT_3D ( 'NONE', #6, #53, #169 ) ;
#14 = APPROVAL ( #49, 'UNSPECIFIED' ) ;
#15 = DIRECTION ( 'NONE',  ( 1.000000000000000000, 0.000000000000000000, 0.000000000000000000 ) ) ;
#16 = EDGE_LOOP ( 'NONE', ( #127, #33 ) ) ;
#17 = CARTESIAN_POINT ( 'NONE',  ( -5.000000000000000000, 0.000000000000000000, 0.000000000000000000 ) ) ;
#18 =( NAMED_UNIT ( * ) SI_UNIT ( $, .STERADIAN. ) SOLID_ANGLE_UNIT ( ) );
#19 = CC_DESIGN_APPROVAL ( #58, ( #137 ) ) ;
#20 =( LENGTH_UNIT ( ) NAMED_UNIT ( * ) SI_UNIT ( .MILLI., .METRE. ) );
#21 = DIRECTION ( 'NONE',  ( 1.000000000000000000, 0.000000000000000000, 0.000000000000000000 ) ) ;
#22 = APPROVAL_STATUS ( 'not_yet_approved' ) ;
#23 = CLOSED_SHELL ( 'NONE', ( #130, #81, #60, #100 ) ) ;
#24 = APPLICATION_CONTEXT ( 'configuration controlled 3d designs of mechanical parts and assemblies' ) ;
#25 = AXIS2_PLACEMENT_3D ( 'NONE', #51, #123, #21 ) ;
#26 = PERSON_AND_ORGANIZATION_ROLE ( 'design_supplier' ) ;
#27 = ORIENTED_EDGE ( 'NONE', *, *, #133, .T. ) ;
#28 = EDGE_CURVE ( 'NONE', #170, #118, #94, .T. ) ;
#29 = VERTEX_POINT ( 'NONE', #3 ) ;
#30 = CYLINDRICAL_SURFACE ( 'NONE', #13, 5.000000000000000000 ) ;
#31 = ORIENTED_EDGE ( 'NONE', *, *, #28, .T. ) ;
#32 = LINE ( 'NONE', #101, #126 ) ;
#33 = ORIENTED_EDGE ( 'NONE', *, *, #41, .T. ) ;
#34 = FACE_OUTER_BOUND ( 'NONE', #90, .T. ) ;
#35 = PRODUCT ( 'Web Model 19730_19731', 'Web Model 19730_19731', '', ( #92 ) ) ;
#36 = AXIS2_PLACEMENT_3D ( 'NONE', #89, #146, #72 ) ;
#37 = PLANE ( 'NONE',  #151 ) ;
#38 = LOCAL_TIME ( 10, 56, 46.00000000000000000, #153 ) ;
#39 = PERSON_AND_ORGANIZATION ( #2, #8 ) ;
#40 = DATE_AND_TIME ( #160, #121 ) ;
#41 = EDGE_CURVE ( 'NONE', #29, #112, #149, .T. ) ;
#42 = SHAPE_DEFINITION_REPRESENTATION ( #142, #71 ) ;
#43 = CC_DESIGN_SECURITY_CLASSIFICATION ( #150, ( #46 ) ) ;
#44 = PRODUCT_RELATED_PRODUCT_CATEGORY ( 'detail', '', ( #35 ) ) ;
#45 = APPLICATION_CONTEXT ( 'configuration controlled 3d designs of mechanical parts and assemblies' ) ;
#46 = PRODUCT_DEFINITION_FORMATION_WITH_SPECIFIED_SOURCE ( 'ANY', '', #35, .NOT_KNOWN. ) ;
#47 = CC_DESIGN_APPROVAL ( #14, ( #150 ) ) ;
#48 = EDGE_LOOP ( 'NONE', ( #69, #166, #27, #31 ) ) ;
#49 = APPROVAL_STATUS ( 'not_yet_approved' ) ;
#50 = DIRECTION ( 'NONE',  ( 1.000000000000000000, 0.000000000000000000, 0.000000000000000000 ) ) ;
#51 = CARTESIAN_POINT ( 'NONE',  ( 0.000000000000000000, 0.000000000000000000, 1.500000000000000000 ) ) ;
#52 = APPROVAL ( #108, 'UNSPECIFIED' ) ;
#53 = DIRECTION ( 'NONE',  ( -0.000000000000000000, -0.000000000000000000, -1.000000000000000000 ) ) ;
#54 = CC_DESIGN_DATE_AND_TIME_ASSIGNMENT ( #86, #134, ( #150 ) ) ;
#55 =( NAMED_UNIT ( * ) PLANE_ANGLE_UNIT ( ) SI_UNIT ( $, .RADIAN. ) );
#56 = FACE_OUTER_BOUND ( 'NONE', #16, .T. ) ;
#57 = CARTESIAN_POINT ( 'NONE',  ( 0.000000000000000000, 0.000000000000000000, 0.000000000000000000 ) ) ;
#58 = APPROVAL ( #22, 'UNSPECIFIED' ) ;
#59 = COORDINATED_UNIVERSAL_TIME_OFFSET ( 5, 0, .BEHIND. ) ;
#60 = ADVANCED_FACE ( 'NONE', ( #56 ), #11, .T. ) ;
#61 =( GEOMETRIC_REPRESENTATION_CONTEXT ( 3 ) GLOBAL_UNCERTAINTY_ASSIGNED_CONTEXT ( ( #148 ) ) GLOBAL_UNIT_ASSIGNED_CONTEXT ( ( #20, #55, #18 ) ) REPRESENTATION_CONTEXT ( 'NONE', 'WORKASPACE' ) );
#62 = APPROVAL_ROLE ( '' ) ;
#63 = AXIS2_PLACEMENT_3D ( 'NONE', #10, #138, #15 ) ;
#64 = APPROVAL_DATE_TIME ( #75, #52 ) ;
#65 = CIRCLE ( 'NONE', #25, 5.000000000000000000 ) ;
#66 = PERSON_AND_ORGANIZATION_ROLE ( 'creator' ) ;
#67 = CALENDAR_DATE ( 2022, 22, 3 ) ;
#68 = AXIS2_PLACEMENT_3D ( 'NONE', #115, #167, #50 ) ;
#69 = ORIENTED_EDGE ( 'NONE', *, *, #84, .F. ) ;
#70 = CARTESIAN_POINT ( 'NONE',  ( 0.000000000000000000, 0.000000000000000000, 0.000000000000000000 ) ) ;
#71 = ADVANCED_BREP_SHAPE_REPRESENTATION ( 'Web Model 19730_19731', ( #136, #85 ), #61 ) ;
#72 = DIRECTION ( 'NONE',  ( -1.000000000000000000, 0.000000000000000000, 0.000000000000000000 ) ) ;
#73 = CARTESIAN_POINT ( 'NONE',  ( 0.000000000000000000, 0.000000000000000000, 1.500000000000000000 ) ) ;
#74 = LOCAL_TIME ( 10, 56, 46.00000000000000000, #163 ) ;
#75 = DATE_AND_TIME ( #161, #74 ) ;
#76 = PERSON_AND_ORGANIZATION ( #2, #8 ) ;
#77 = LOCAL_TIME ( 10, 56, 46.00000000000000000, #162 ) ;
#78 = EDGE_LOOP ( 'NONE', ( #102, #80 ) ) ;
#79 = DIRECTION ( 'NONE',  ( 1.000000000000000000, 0.000000000000000000, 0.000000000000000000 ) ) ;
#80 = ORIENTED_EDGE ( 'NONE', *, *, #95, .F. ) ;
#81 = ADVANCED_FACE ( 'NONE', ( #172 ), #30, .T. ) ;
#82 = CARTESIAN_POINT ( 'NONE',  ( -5.000000000000000000, 0.000000000000000000, 1.500000000000000000 ) ) ;
#83 = PERSON_AND_ORGANIZATION_ROLE ( 'creator' ) ;
#84 = EDGE_CURVE ( 'NONE', #29, #118, #129, .T. ) ;
#85 = AXIS2_PLACEMENT_3D ( 'NONE', #70, #125, #128 ) ;
#86 = DATE_AND_TIME ( #96, #38 ) ;
#87 = ORIENTED_EDGE ( 'NONE', *, *, #84, .T. ) ;
#88 = FACE_OUTER_BOUND ( 'NONE', #78, .T. ) ;
#89 = CARTESIAN_POINT ( 'NONE',  ( 0.000000000000000000, 0.000000000000000000, 1.500000000000000000 ) ) ;
#90 = EDGE_LOOP ( 'NONE', ( #7, #87, #157, #143 ) ) ;
#91 = CC_DESIGN_APPROVAL ( #52, ( #46 ) ) ;
#92 = MECHANICAL_CONTEXT ( 'NONE', #45, 'mechanical' ) ;
#93 = APPROVAL_ROLE ( '' ) ;
#94 = CIRCLE ( 'NONE', #63, 5.000000000000000000 ) ;
#95 = EDGE_CURVE ( 'NONE', #118, #170, #107, .T. ) ;
#96 = CALENDAR_DATE ( 2022, 22, 3 ) ;
#97 = LOCAL_TIME ( 10, 56, 46.00000000000000000, #147 ) ;
#98 = PERSON_AND_ORGANIZATION ( #2, #8 ) ;
#99 = APPROVAL_ROLE ( '' ) ;
#100 = ADVANCED_FACE ( 'NONE', ( #88 ), #37, .F. ) ;
#101 = CARTESIAN_POINT ( 'NONE',  ( -5.000000000000000000, 0.000000000000000000, 1.500000000000000000 ) ) ;
#102 = ORIENTED_EDGE ( 'NONE', *, *, #28, .F. ) ;
#103 = DIRECTION ( 'NONE',  ( -0.000000000000000000, -0.000000000000000000, -1.000000000000000000 ) ) ;
#104 = APPLICATION_PROTOCOL_DEFINITION ( 'international standard', 'config_control_design', 1994, #45 ) ;
#105 = DIRECTION ( 'NONE',  ( 0.000000000000000000, 0.000000000000000000, 1.000000000000000000 ) ) ;
#106 = CARTESIAN_POINT ( 'NONE',  ( 5.000000000000000000, 6.123233995736766282E-16, 0.000000000000000000 ) ) ;
#107 = CIRCLE ( 'NONE', #111, 5.000000000000000000 ) ;
#108 = APPROVAL_STATUS ( 'not_yet_approved' ) ;
#109 = DESIGN_CONTEXT ( 'detailed design', #24, 'design' ) ;
#110 = PERSON_AND_ORGANIZATION ( #2, #8 ) ;
#111 = AXIS2_PLACEMENT_3D ( 'NONE', #171, #141, #79 ) ;
#112 = VERTEX_POINT ( 'NONE', #82 ) ;
#113 = PERSON_AND_ORGANIZATION_ROLE ( 'classification_officer' ) ;
#114 = CC_DESIGN_PERSON_AND_ORGANIZATION_ASSIGNMENT ( #159, #120, ( #35 ) ) ;
#115 = CARTESIAN_POINT ( 'NONE',  ( 0.000000000000000000, 0.000000000000000000, 1.500000000000000000 ) ) ;
#116 = APPROVAL_DATE_TIME ( #5, #58 ) ;
#117 = CC_DESIGN_PERSON_AND_ORGANIZATION_ASSIGNMENT ( #110, #66, ( #46 ) ) ;
#118 = VERTEX_POINT ( 'NONE', #106 ) ;
#119 = DIRECTION ( 'NONE',  ( 1.000000000000000000, 0.000000000000000000, -0.000000000000000000 ) ) ;
#120 = PERSON_AND_ORGANIZATION_ROLE ( 'design_owner' ) ;
#121 = LOCAL_TIME ( 10, 56, 46.00000000000000000, #59 ) ;
#122 = PERSON_AND_ORGANIZATION ( #2, #8 ) ;
#123 = DIRECTION ( 'NONE',  ( 0.000000000000000000, 0.000000000000000000, 1.000000000000000000 ) ) ;
#124 = CC_DESIGN_DATE_AND_TIME_ASSIGNMENT ( #40, #131, ( #137 ) ) ;
#125 = DIRECTION ( 'NONE',  ( 0.000000000000000000, 0.000000000000000000, 1.000000000000000000 ) ) ;
#126 = VECTOR ( 'NONE', #144, 1000.000000000000000 ) ;
#127 = ORIENTED_EDGE ( 'NONE', *, *, #152, .T. ) ;
#128 = DIRECTION ( 'NONE',  ( 1.000000000000000000, 0.000000000000000000, 0.000000000000000000 ) ) ;
#129 = LINE ( 'NONE', #156, #165 ) ;
#130 = ADVANCED_FACE ( 'NONE', ( #34 ), #140, .T. ) ;
#131 = DATE_TIME_ROLE ( 'creation_date' ) ;
#132 = CC_DESIGN_PERSON_AND_ORGANIZATION_ASSIGNMENT ( #98, #26, ( #46 ) ) ;
#133 = EDGE_CURVE ( 'NONE', #112, #170, #32, .T. ) ;
#134 = DATE_TIME_ROLE ( 'classification_date' ) ;
#135 = APPROVAL_DATE_TIME ( #164, #14 ) ;
#136 = MANIFOLD_SOLID_BREP ( 'Boss-Extrude1', #23 ) ;
#137 = PRODUCT_DEFINITION ( 'UNKNOWN', '', #46, #109 ) ;
#138 = DIRECTION ( 'NONE',  ( 0.000000000000000000, 0.000000000000000000, 1.000000000000000000 ) ) ;
#139 = SECURITY_CLASSIFICATION_LEVEL ( 'unclassified' ) ;
#140 = CYLINDRICAL_SURFACE ( 'NONE', #36, 5.000000000000000000 ) ;
#141 = DIRECTION ( 'NONE',  ( 0.000000000000000000, 0.000000000000000000, 1.000000000000000000 ) ) ;
#142 = PRODUCT_DEFINITION_SHAPE ( 'NONE', 'NONE',  #137 ) ;
#143 = ORIENTED_EDGE ( 'NONE', *, *, #133, .F. ) ;
#144 = DIRECTION ( 'NONE',  ( -0.000000000000000000, -0.000000000000000000, -1.000000000000000000 ) ) ;
#145 = APPROVAL_PERSON_ORGANIZATION ( #12, #52, #62 ) ;
#146 = DIRECTION ( 'NONE',  ( -0.000000000000000000, -0.000000000000000000, -1.000000000000000000 ) ) ;
#147 = COORDINATED_UNIVERSAL_TIME_OFFSET ( 5, 0, .BEHIND. ) ;
#148 = UNCERTAINTY_MEASURE_WITH_UNIT (LENGTH_MEASURE( 1.000000000000000082E-05 ), #20, 'distance_accuracy_value', 'NONE');
#149 = CIRCLE ( 'NONE', #68, 5.000000000000000000 ) ;
#150 = SECURITY_CLASSIFICATION ( '', '', #139 ) ;
#151 = AXIS2_PLACEMENT_3D ( 'NONE', #57, #158, #173 ) ;
#152 = EDGE_CURVE ( 'NONE', #112, #29, #65, .T. ) ;
#153 = COORDINATED_UNIVERSAL_TIME_OFFSET ( 5, 0, .BEHIND. ) ;
#154 = AXIS2_PLACEMENT_3D ( 'NONE', #73, #105, #119 ) ;
#155 = CC_DESIGN_PERSON_AND_ORGANIZATION_ASSIGNMENT ( #168, #83, ( #137 ) ) ;
#156 = CARTESIAN_POINT ( 'NONE',  ( 5.000000000000000000, 6.123233995736766282E-16, 1.500000000000000000 ) ) ;
#157 = ORIENTED_EDGE ( 'NONE', *, *, #95, .T. ) ;
#158 = DIRECTION ( 'NONE',  ( 0.000000000000000000, 0.000000000000000000, 1.000000000000000000 ) ) ;
#159 = PERSON_AND_ORGANIZATION ( #2, #8 ) ;
#160 = CALENDAR_DATE ( 2022, 22, 3 ) ;
#161 = CALENDAR_DATE ( 2022, 22, 3 ) ;
#162 = COORDINATED_UNIVERSAL_TIME_OFFSET ( 5, 0, .BEHIND. ) ;
#163 = COORDINATED_UNIVERSAL_TIME_OFFSET ( 5, 0, .BEHIND. ) ;
#164 = DATE_AND_TIME ( #1, #77 ) ;
#165 = VECTOR ( 'NONE', #103, 1000.000000000000000 ) ;
#166 = ORIENTED_EDGE ( 'NONE', *, *, #152, .F. ) ;
#167 = DIRECTION ( 'NONE',  ( 0.000000000000000000, 0.000000000000000000, 1.000000000000000000 ) ) ;
#168 = PERSON_AND_ORGANIZATION ( #2, #8 ) ;
#169 = DIRECTION ( 'NONE',  ( -1.000000000000000000, 0.000000000000000000, 0.000000000000000000 ) ) ;
#170 = VERTEX_POINT ( 'NONE', #17 ) ;
#171 = CARTESIAN_POINT ( 'NONE',  ( 0.000000000000000000, 0.000000000000000000, 0.000000000000000000 ) ) ;
#172 = FACE_OUTER_BOUND ( 'NONE', #48, .T. ) ;
#173 = DIRECTION ( 'NONE',  ( 1.000000000000000000, 0.000000000000000000, -0.000000000000000000 ) ) ;
#174 = APPROVAL_PERSON_ORGANIZATION ( #39, #58, #93 ) ;
#175 = CC_DESIGN_PERSON_AND_ORGANIZATION_ASSIGNMENT ( #76, #113, ( #150 ) ) ;
ENDSEC;
END-ISO-10303-21;
