ISO-10303-21;
HEADER;
FILE_DESCRIPTION (( 'STEP AP203' ),
    '1' );
FILE_NAME ('Web Model 12298_12298.step',
    '2019-01-23T20:58:02',
    ( '' ),
    ( '' ),
    'SwSTEP 2.0',
    'SolidWorks 2016',
    '' );
FILE_SCHEMA (( 'CONFIG_CONTROL_DESIGN' ));
ENDSEC;

DATA;
#1 = CALENDAR_DATE ( 2019, 23, 1 ) ;
#2 = APPROVAL_ROLE ( '' ) ;
#3 = COORDINATED_UNIVERSAL_TIME_OFFSET ( 5, 0, .BEHIND. ) ;
#4 = ORIENTED_EDGE ( 'NONE', *, *, #23, .F. ) ;
#5 = PERSON_AND_ORGANIZATION ( #154, #72 ) ;
#6 = PLANE ( 'NONE',  #197 ) ;
#7 = DIRECTION ( 'NONE',  ( 0.0000000000000000000, 0.0000000000000000000, 1.000000000000000000 ) ) ;
#8 = DIRECTION ( 'NONE',  ( 0.0000000000000000000, 0.0000000000000000000, -1.000000000000000000 ) ) ;
#9 = PLANE ( 'NONE',  #90 ) ;
#10 = AXIS2_PLACEMENT_3D ( 'NONE', #74, #57, #75 ) ;
#11 = VECTOR ( 'NONE', #212, 1000.000000000000000 ) ;
#12 = VECTOR ( 'NONE', #150, 1000.000000000000000 ) ;
#13 = PRODUCT_DEFINITION_FORMATION_WITH_SPECIFIED_SOURCE ( 'ANY', '', #18, .NOT_KNOWN. ) ;
#14 = EDGE_LOOP ( 'NONE', ( #156, #55, #70, #33 ) ) ;
#15 = APPROVAL_STATUS ( 'not_yet_approved' ) ;
#16 = SECURITY_CLASSIFICATION_LEVEL ( 'unclassified' ) ;
#17 = LINE ( 'NONE', #41, #19 ) ;
#18 = PRODUCT ( 'Web Model 12298_12298', 'Web Model 12298_12298', '', ( #165 ) ) ;
#19 = VECTOR ( 'NONE', #207, 1000.000000000000000 ) ;
#20 = APPROVAL ( #62, 'UNSPECIFIED' ) ;
#21 = DIRECTION ( 'NONE',  ( -1.000000000000000000, -0.0000000000000000000, -0.0000000000000000000 ) ) ;
#22 = ADVANCED_FACE ( 'NONE', ( #106 ), #178, .F. ) ;
#23 = EDGE_CURVE ( 'NONE', #129, #77, #119, .T. ) ;
#24 = DIRECTION ( 'NONE',  ( 0.0000000000000000000, 0.0000000000000000000, -1.000000000000000000 ) ) ;
#25 = CALENDAR_DATE ( 2019, 23, 1 ) ;
#26 = ADVANCED_FACE ( 'NONE', ( #85 ), #9, .T. ) ;
#27 = ORIENTED_EDGE ( 'NONE', *, *, #47, .F. ) ;
#28 = ADVANCED_FACE ( 'NONE', ( #40 ), #215, .F. ) ;
#29 = CARTESIAN_POINT ( 'NONE',  ( -12.69999999999999900, -6.350000000000000500, 0.05000000000000000300 ) ) ;
#30 = ORIENTED_EDGE ( 'NONE', *, *, #136, .F. ) ;
#31 = PRODUCT_DEFINITION_SHAPE ( 'NONE', 'NONE',  #205 ) ;
#32 = AXIS2_PLACEMENT_3D ( 'NONE', #107, #120, #7 ) ;
#33 = ORIENTED_EDGE ( 'NONE', *, *, #79, .T. ) ;
#34 = CALENDAR_DATE ( 2019, 23, 1 ) ;
#35 = VERTEX_POINT ( 'NONE', #155 ) ;
#36 = DIRECTION ( 'NONE',  ( -0.0000000000000000000, -0.0000000000000000000, -1.000000000000000000 ) ) ;
#37 = APPROVAL_PERSON_ORGANIZATION ( #5, #20, #59 ) ;
#38 = EDGE_CURVE ( 'NONE', #50, #219, #64, .T. ) ;
#39 = CARTESIAN_POINT ( 'NONE',  ( 12.69999999999999900, 6.349999999999998800, 0.05000000000000000300 ) ) ;
#40 = FACE_OUTER_BOUND ( 'NONE', #149, .T. ) ;
#41 = CARTESIAN_POINT ( 'NONE',  ( -12.69999999999999900, -6.350000000000000500, 0.05000000000000000300 ) ) ;
#42 = MANIFOLD_SOLID_BREP ( 'Boss-Extrude1', #228 ) ;
#43 = LOCAL_TIME ( 15, 58, 2.000000000000000000, #49 ) ;
#44 = CC_DESIGN_APPROVAL ( #177, ( #218 ) ) ;
#45 = CARTESIAN_POINT ( 'NONE',  ( 12.69999999999999900, 6.349999999999998800, -0.05000000000000000300 ) ) ;
#46 = CARTESIAN_POINT ( 'NONE',  ( -12.69999999999999900, -6.350000000000000500, -0.05000000000000000300 ) ) ;
#47 = EDGE_CURVE ( 'NONE', #77, #206, #173, .T. ) ;
#48 = CARTESIAN_POINT ( 'NONE',  ( -12.69999999999999900, 6.349999999999998800, 0.05000000000000000300 ) ) ;
#49 = COORDINATED_UNIVERSAL_TIME_OFFSET ( 5, 0, .BEHIND. ) ;
#50 = VERTEX_POINT ( 'NONE', #39 ) ;
#51 = DIRECTION ( 'NONE',  ( -1.000000000000000000, 0.0000000000000000000, -0.0000000000000000000 ) ) ;
#52 = EDGE_CURVE ( 'NONE', #219, #129, #17, .T. ) ;
#53 =( NAMED_UNIT ( * ) PLANE_ANGLE_UNIT ( ) SI_UNIT ( $, .RADIAN. ) );
#54 = LOCAL_TIME ( 15, 58, 2.000000000000000000, #92 ) ;
#55 = ORIENTED_EDGE ( 'NONE', *, *, #174, .F. ) ;
#56 = AXIS2_PLACEMENT_3D ( 'NONE', #162, #132, #183 ) ;
#57 = DIRECTION ( 'NONE',  ( 0.0000000000000000000, -1.000000000000000000, 0.0000000000000000000 ) ) ;
#58 = PERSON_AND_ORGANIZATION ( #154, #72 ) ;
#59 = APPROVAL_ROLE ( '' ) ;
#60 = CC_DESIGN_SECURITY_CLASSIFICATION ( #218, ( #13 ) ) ;
#61 = APPROVAL_ROLE ( '' ) ;
#62 = APPROVAL_STATUS ( 'not_yet_approved' ) ;
#63 = VECTOR ( 'NONE', #36, 1000.000000000000000 ) ;
#64 = LINE ( 'NONE', #192, #224 ) ;
#65 = ORIENTED_EDGE ( 'NONE', *, *, #68, .T. ) ;
#66 = AXIS2_PLACEMENT_3D ( 'NONE', #86, #166, #116 ) ;
#67 = DIRECTION ( 'NONE',  ( 0.0000000000000000000, 1.000000000000000000, 0.0000000000000000000 ) ) ;
#68 = EDGE_CURVE ( 'NONE', #77, #50, #198, .T. ) ;
#69 = VECTOR ( 'NONE', #171, 1000.000000000000000 ) ;
#70 = ORIENTED_EDGE ( 'NONE', *, *, #38, .F. ) ;
#71 = ADVANCED_FACE ( 'NONE', ( #122 ), #226, .F. ) ;
#72 = ORGANIZATION ( 'UNSPECIFIED', 'UNSPECIFIED', '' ) ;
#73 = AXIS2_PLACEMENT_3D ( 'NONE', #124, #139, #121 ) ;
#74 = CARTESIAN_POINT ( 'NONE',  ( -12.69999999999999900, 6.349999999999998800, 0.05000000000000000300 ) ) ;
#75 = DIRECTION ( 'NONE',  ( 0.0000000000000000000, -0.0000000000000000000, -1.000000000000000000 ) ) ;
#76 = VECTOR ( 'NONE', #168, 1000.000000000000000 ) ;
#77 = VERTEX_POINT ( 'NONE', #114 ) ;
#78 = APPLICATION_CONTEXT ( 'configuration controlled 3d designs of mechanical parts and assemblies' ) ;
#79 = EDGE_CURVE ( 'NONE', #50, #146, #109, .T. ) ;
#80 = FACE_OUTER_BOUND ( 'NONE', #14, .T. ) ;
#81 = PERSON_AND_ORGANIZATION_ROLE ( 'creator' ) ;
#82 = ORIENTED_EDGE ( 'NONE', *, *, #38, .T. ) ;
#83 = ORIENTED_EDGE ( 'NONE', *, *, #174, .T. ) ;
#84 = APPROVAL ( #111, 'UNSPECIFIED' ) ;
#85 = FACE_OUTER_BOUND ( 'NONE', #115, .T. ) ;
#86 = CARTESIAN_POINT ( 'NONE',  ( -12.69999999999999900, -6.350000000000000500, 0.05000000000000000300 ) ) ;
#87 = VECTOR ( 'NONE', #67, 1000.000000000000000 ) ;
#88 = CARTESIAN_POINT ( 'NONE',  ( -12.69999999999999900, -6.350000000000000500, -0.05000000000000000300 ) ) ;
#89 = ORIENTED_EDGE ( 'NONE', *, *, #52, .F. ) ;
#90 = AXIS2_PLACEMENT_3D ( 'NONE', #157, #8, #51 ) ;
#91 = LINE ( 'NONE', #220, #63 ) ;
#92 = COORDINATED_UNIVERSAL_TIME_OFFSET ( 5, 0, .BEHIND. ) ;
#93 = EDGE_LOOP ( 'NONE', ( #123, #113, #89, #83 ) ) ;
#94 = CC_DESIGN_PERSON_AND_ORGANIZATION_ASSIGNMENT ( #148, #131, ( #13 ) ) ;
#95 = DATE_TIME_ROLE ( 'creation_date' ) ;
#96 = COORDINATED_UNIVERSAL_TIME_OFFSET ( 5, 0, .BEHIND. ) ;
#97 = CC_DESIGN_DATE_AND_TIME_ASSIGNMENT ( #180, #202, ( #218 ) ) ;
#98 = CC_DESIGN_DATE_AND_TIME_ASSIGNMENT ( #163, #95, ( #205 ) ) ;
#99 = DATE_AND_TIME ( #172, #128 ) ;
#100 = LINE ( 'NONE', #48, #69 ) ;
#101 = CC_DESIGN_APPROVAL ( #20, ( #205 ) ) ;
#102 = EDGE_CURVE ( 'NONE', #206, #146, #133, .T. ) ;
#103 = CARTESIAN_POINT ( 'NONE',  ( 12.69999999999999900, -6.350000000000000500, -0.05000000000000000300 ) ) ;
#104 = EDGE_LOOP ( 'NONE', ( #153, #27, #4, #164 ) ) ;
#105 = LOCAL_TIME ( 15, 58, 2.000000000000000000, #3 ) ;
#106 = FACE_OUTER_BOUND ( 'NONE', #93, .T. ) ;
#107 = CARTESIAN_POINT ( 'NONE',  ( 12.69999999999999900, -6.350000000000000500, 0.05000000000000000300 ) ) ;
#108 = VECTOR ( 'NONE', #191, 1000.000000000000000 ) ;
#109 = LINE ( 'NONE', #189, #11 ) ;
#110 = UNCERTAINTY_MEASURE_WITH_UNIT (LENGTH_MEASURE( 1.000000000000000100E-005 ), #130, 'distance_accuracy_value', 'NONE');
#111 = APPROVAL_STATUS ( 'not_yet_approved' ) ;
#112 = APPLICATION_PROTOCOL_DEFINITION ( 'international standard', 'config_control_design', 1994, #200 ) ;
#113 = ORIENTED_EDGE ( 'NONE', *, *, #236, .F. ) ;
#114 = CARTESIAN_POINT ( 'NONE',  ( 12.69999999999999900, -6.350000000000000500, 0.05000000000000000300 ) ) ;
#115 = EDGE_LOOP ( 'NONE', ( #182, #194, #233, #30 ) ) ;
#116 = DIRECTION ( 'NONE',  ( 0.0000000000000000000, -0.0000000000000000000, 1.000000000000000000 ) ) ;
#117 = CC_DESIGN_APPROVAL ( #84, ( #13 ) ) ;
#118 = APPROVAL_PERSON_ORGANIZATION ( #58, #84, #2 ) ;
#119 = LINE ( 'NONE', #176, #167 ) ;
#120 = DIRECTION ( 'NONE',  ( -1.000000000000000000, 0.0000000000000000000, 0.0000000000000000000 ) ) ;
#121 = DIRECTION ( 'NONE',  ( 0.0000000000000000000, 0.0000000000000000000, -1.000000000000000000 ) ) ;
#122 = FACE_OUTER_BOUND ( 'NONE', #104, .T. ) ;
#123 = ORIENTED_EDGE ( 'NONE', *, *, #196, .T. ) ;
#124 = CARTESIAN_POINT ( 'NONE',  ( -12.69999999999999900, -6.350000000000000500, 0.05000000000000000300 ) ) ;
#125 = PERSON_AND_ORGANIZATION ( #154, #72 ) ;
#126 = ORIENTED_EDGE ( 'NONE', *, *, #79, .F. ) ;
#127 = ORIENTED_EDGE ( 'NONE', *, *, #47, .T. ) ;
#128 = LOCAL_TIME ( 15, 58, 2.000000000000000000, #195 ) ;
#129 = VERTEX_POINT ( 'NONE', #29 ) ;
#130 =( LENGTH_UNIT ( ) NAMED_UNIT ( * ) SI_UNIT ( .MILLI., .METRE. ) );
#131 = PERSON_AND_ORGANIZATION_ROLE ( 'design_supplier' ) ;
#132 = DIRECTION ( 'NONE',  ( 0.0000000000000000000, 0.0000000000000000000, 1.000000000000000000 ) ) ;
#133 = LINE ( 'NONE', #103, #87 ) ;
#134 = SHAPE_DEFINITION_REPRESENTATION ( #31, #201 ) ;
#135 = CARTESIAN_POINT ( 'NONE',  ( 0.0000000000000000000, 0.0000000000000000000, 0.05000000000000000300 ) ) ;
#136 = EDGE_CURVE ( 'NONE', #146, #225, #211, .T. ) ;
#137 = CARTESIAN_POINT ( 'NONE',  ( 12.69999999999999900, -6.350000000000000500, 0.05000000000000000300 ) ) ;
#138 = ORIENTED_EDGE ( 'NONE', *, *, #102, .T. ) ;
#139 = DIRECTION ( 'NONE',  ( 1.000000000000000000, 0.0000000000000000000, 0.0000000000000000000 ) ) ;
#140 = ADVANCED_FACE ( 'NONE', ( #214 ), #6, .F. ) ;
#141 = LOCAL_TIME ( 15, 58, 2.000000000000000000, #96 ) ;
#142 = VECTOR ( 'NONE', #175, 1000.000000000000000 ) ;
#143 = DESIGN_CONTEXT ( 'detailed design', #200, 'design' ) ;
#144 = PERSON_AND_ORGANIZATION ( #154, #72 ) ;
#145 = CC_DESIGN_PERSON_AND_ORGANIZATION_ASSIGNMENT ( #144, #81, ( #205 ) ) ;
#146 = VERTEX_POINT ( 'NONE', #45 ) ;
#147 = PERSON_AND_ORGANIZATION_ROLE ( 'classification_officer' ) ;
#148 = PERSON_AND_ORGANIZATION ( #154, #72 ) ;
#149 = EDGE_LOOP ( 'NONE', ( #138, #126, #186, #127 ) ) ;
#150 = DIRECTION ( 'NONE',  ( 0.0000000000000000000, 1.000000000000000000, 0.0000000000000000000 ) ) ;
#151 = DIRECTION ( 'NONE',  ( -1.000000000000000000, 0.0000000000000000000, -0.0000000000000000000 ) ) ;
#152 = APPROVAL_DATE_TIME ( #203, #84 ) ;
#153 = ORIENTED_EDGE ( 'NONE', *, *, #210, .T. ) ;
#154 = PERSON ( 'UNSPECIFIED', 'UNSPECIFIED', 'UNSPECIFIED', ('UNSPECIFIED'), ('UNSPECIFIED'), ('UNSPECIFIED') ) ;
#155 = CARTESIAN_POINT ( 'NONE',  ( -12.69999999999999900, -6.350000000000000500, -0.05000000000000000300 ) ) ;
#156 = ORIENTED_EDGE ( 'NONE', *, *, #136, .T. ) ;
#157 = CARTESIAN_POINT ( 'NONE',  ( 0.0000000000000000000, 0.0000000000000000000, -0.05000000000000000300 ) ) ;
#158 =( GEOMETRIC_REPRESENTATION_CONTEXT ( 3 ) GLOBAL_UNCERTAINTY_ASSIGNED_CONTEXT ( ( #110 ) ) GLOBAL_UNIT_ASSIGNED_CONTEXT ( ( #130, #53, #179 ) ) REPRESENTATION_CONTEXT ( 'NONE', 'WORKASPACE' ) );
#159 = DATE_AND_TIME ( #235, #43 ) ;
#160 = LINE ( 'NONE', #46, #108 ) ;
#161 = VECTOR ( 'NONE', #208, 1000.000000000000000 ) ;
#162 = CARTESIAN_POINT ( 'NONE',  ( 0.0000000000000000000, 0.0000000000000000000, 0.0000000000000000000 ) ) ;
#163 = DATE_AND_TIME ( #1, #105 ) ;
#164 = ORIENTED_EDGE ( 'NONE', *, *, #236, .T. ) ;
#165 = MECHANICAL_CONTEXT ( 'NONE', #78, 'mechanical' ) ;
#166 = DIRECTION ( 'NONE',  ( 0.0000000000000000000, 1.000000000000000000, 0.0000000000000000000 ) ) ;
#167 = VECTOR ( 'NONE', #213, 1000.000000000000000 ) ;
#168 = DIRECTION ( 'NONE',  ( -0.0000000000000000000, -0.0000000000000000000, -1.000000000000000000 ) ) ;
#169 = CC_DESIGN_PERSON_AND_ORGANIZATION_ASSIGNMENT ( #125, #187, ( #13 ) ) ;
#170 = CARTESIAN_POINT ( 'NONE',  ( -12.69999999999999900, 6.349999999999998800, -0.05000000000000000300 ) ) ;
#171 = DIRECTION ( 'NONE',  ( -0.0000000000000000000, -0.0000000000000000000, -1.000000000000000000 ) ) ;
#172 = CALENDAR_DATE ( 2019, 23, 1 ) ;
#173 = LINE ( 'NONE', #137, #76 ) ;
#174 = EDGE_CURVE ( 'NONE', #219, #225, #100, .T. ) ;
#175 = DIRECTION ( 'NONE',  ( 1.000000000000000000, 0.0000000000000000000, 0.0000000000000000000 ) ) ;
#176 = CARTESIAN_POINT ( 'NONE',  ( -12.69999999999999900, -6.350000000000000500, 0.05000000000000000300 ) ) ;
#177 = APPROVAL ( #15, 'UNSPECIFIED' ) ;
#178 = PLANE ( 'NONE',  #73 ) ;
#179 =( NAMED_UNIT ( * ) SI_UNIT ( $, .STERADIAN. ) SOLID_ANGLE_UNIT ( ) );
#180 = DATE_AND_TIME ( #34, #141 ) ;
#181 = CARTESIAN_POINT ( 'NONE',  ( -12.69999999999999900, 6.349999999999998800, 0.05000000000000000300 ) ) ;
#182 = ORIENTED_EDGE ( 'NONE', *, *, #102, .F. ) ;
#183 = DIRECTION ( 'NONE',  ( 1.000000000000000000, 0.0000000000000000000, 0.0000000000000000000 ) ) ;
#184 = PRODUCT_RELATED_PRODUCT_CATEGORY ( 'detail', '', ( #18 ) ) ;
#185 = APPROVAL_DATE_TIME ( #159, #177 ) ;
#186 = ORIENTED_EDGE ( 'NONE', *, *, #68, .F. ) ;
#187 = PERSON_AND_ORGANIZATION_ROLE ( 'creator' ) ;
#188 = CARTESIAN_POINT ( 'NONE',  ( 12.69999999999999900, -6.350000000000000500, 0.05000000000000000300 ) ) ;
#189 = CARTESIAN_POINT ( 'NONE',  ( 12.69999999999999900, 6.349999999999998800, 0.05000000000000000300 ) ) ;
#190 = PERSON_AND_ORGANIZATION ( #154, #72 ) ;
#191 = DIRECTION ( 'NONE',  ( -0.0000000000000000000, -1.000000000000000000, -0.0000000000000000000 ) ) ;
#192 = CARTESIAN_POINT ( 'NONE',  ( -12.69999999999999900, 6.349999999999998800, 0.05000000000000000300 ) ) ;
#193 = PERSON_AND_ORGANIZATION ( #154, #72 ) ;
#194 = ORIENTED_EDGE ( 'NONE', *, *, #210, .F. ) ;
#195 = COORDINATED_UNIVERSAL_TIME_OFFSET ( 5, 0, .BEHIND. ) ;
#196 = EDGE_CURVE ( 'NONE', #225, #35, #160, .T. ) ;
#197 = AXIS2_PLACEMENT_3D ( 'NONE', #135, #24, #151 ) ;
#198 = LINE ( 'NONE', #188, #12 ) ;
#199 = ORIENTED_EDGE ( 'NONE', *, *, #52, .T. ) ;
#200 = APPLICATION_CONTEXT ( 'configuration controlled 3d designs of mechanical parts and assemblies' ) ;
#201 = ADVANCED_BREP_SHAPE_REPRESENTATION ( 'Web Model 12298_12298', ( #42, #56 ), #158 ) ;
#202 = DATE_TIME_ROLE ( 'classification_date' ) ;
#203 = DATE_AND_TIME ( #25, #54 ) ;
#204 = LINE ( 'NONE', #88, #142 ) ;
#205 = PRODUCT_DEFINITION ( 'UNKNOWN', '', #13, #143 ) ;
#206 = VERTEX_POINT ( 'NONE', #230 ) ;
#207 = DIRECTION ( 'NONE',  ( -0.0000000000000000000, -1.000000000000000000, -0.0000000000000000000 ) ) ;
#208 = DIRECTION ( 'NONE',  ( -1.000000000000000000, -0.0000000000000000000, -0.0000000000000000000 ) ) ;
#209 = CARTESIAN_POINT ( 'NONE',  ( -12.69999999999999900, 6.349999999999998800, -0.05000000000000000300 ) ) ;
#210 = EDGE_CURVE ( 'NONE', #35, #206, #204, .T. ) ;
#211 = LINE ( 'NONE', #170, #161 ) ;
#212 = DIRECTION ( 'NONE',  ( -0.0000000000000000000, -0.0000000000000000000, -1.000000000000000000 ) ) ;
#213 = DIRECTION ( 'NONE',  ( 1.000000000000000000, 0.0000000000000000000, 0.0000000000000000000 ) ) ;
#214 = FACE_OUTER_BOUND ( 'NONE', #234, .T. ) ;
#215 = PLANE ( 'NONE',  #32 ) ;
#216 = APPROVAL_PERSON_ORGANIZATION ( #227, #177, #61 ) ;
#217 = ORIENTED_EDGE ( 'NONE', *, *, #23, .T. ) ;
#218 = SECURITY_CLASSIFICATION ( '', '', #16 ) ;
#219 = VERTEX_POINT ( 'NONE', #181 ) ;
#220 = CARTESIAN_POINT ( 'NONE',  ( -12.69999999999999900, -6.350000000000000500, 0.05000000000000000300 ) ) ;
#221 = APPLICATION_PROTOCOL_DEFINITION ( 'international standard', 'config_control_design', 1994, #78 ) ;
#222 = CC_DESIGN_PERSON_AND_ORGANIZATION_ASSIGNMENT ( #193, #223, ( #18 ) ) ;
#223 = PERSON_AND_ORGANIZATION_ROLE ( 'design_owner' ) ;
#224 = VECTOR ( 'NONE', #21, 1000.000000000000000 ) ;
#225 = VERTEX_POINT ( 'NONE', #209 ) ;
#226 = PLANE ( 'NONE',  #66 ) ;
#227 = PERSON_AND_ORGANIZATION ( #154, #72 ) ;
#228 = CLOSED_SHELL ( 'NONE', ( #28, #231, #22, #71, #140, #26 ) ) ;
#229 = CC_DESIGN_PERSON_AND_ORGANIZATION_ASSIGNMENT ( #190, #147, ( #218 ) ) ;
#230 = CARTESIAN_POINT ( 'NONE',  ( 12.69999999999999900, -6.350000000000000500, -0.05000000000000000300 ) ) ;
#231 = ADVANCED_FACE ( 'NONE', ( #80 ), #237, .F. ) ;
#232 = APPROVAL_DATE_TIME ( #99, #20 ) ;
#233 = ORIENTED_EDGE ( 'NONE', *, *, #196, .F. ) ;
#234 = EDGE_LOOP ( 'NONE', ( #65, #82, #199, #217 ) ) ;
#235 = CALENDAR_DATE ( 2019, 23, 1 ) ;
#236 = EDGE_CURVE ( 'NONE', #129, #35, #91, .T. ) ;
#237 = PLANE ( 'NONE',  #10 ) ;
ENDSEC;
END-ISO-10303-21;
