ISO-10303-21;
HEADER;
FILE_DESCRIPTION (( 'STEP AP203' ),
    '1' );
FILE_NAME ('20167-E0W.STEP',
    '2018-06-01T18:07:10',
    ( 'admin' ),
    ( '' ),
    'SwSTEP 2.0',
    'SolidWorks 2016',
    '' );
FILE_SCHEMA (( 'CONFIG_CONTROL_DESIGN' ));
ENDSEC;

DATA;
#1 = DIRECTION ( 'NONE',  ( -0.0000000000000000000, -1.836909530733566100E-016, 1.000000000000000000 ) ) ;
#2 = ORIENTED_EDGE ( 'NONE', *, *, #209, .F. ) ;
#3 = AXIS2_PLACEMENT_3D ( 'NONE', #330, #116, #257 ) ;
#4 = DIRECTION ( 'NONE',  ( 0.0000000000000000000, -1.000000000000000000, -1.707404996040164800E-016 ) ) ;
#5 = AXIS2_PLACEMENT_3D ( 'NONE', #97, #157, #24 ) ;
#6 = CARTESIAN_POINT ( 'NONE',  ( 0.0000000000000000000, -0.5000000000000000000, -0.05789920282311288000 ) ) ;
#7 = AXIS2_PLACEMENT_3D ( 'NONE', #231, #63, #261 ) ;
#8 = CARTESIAN_POINT ( 'NONE',  ( 0.0000000000000000000, 0.0000000000000000000, 5.821310552353593500 ) ) ;
#9 = CIRCLE ( 'NONE', #3, 11.45003937007874100 ) ;
#10 = PERSON ( 'UNSPECIFIED', 'UNSPECIFIED', 'UNSPECIFIED', ('UNSPECIFIED'), ('UNSPECIFIED'), ('UNSPECIFIED') ) ;
#11 = AXIS2_PLACEMENT_3D ( 'NONE', #200, #142, #205 ) ;
#12 = ORIENTED_EDGE ( 'NONE', *, *, #265, .F. ) ;
#13 = ADVANCED_FACE ( 'NONE', ( #329 ), #43, .T. ) ;
#14 = DIRECTION ( 'NONE',  ( -0.0000000000000000000, -1.836909530733566100E-016, 1.000000000000000000 ) ) ;
#15 = SECURITY_CLASSIFICATION ( '', '', #46 ) ;
#16 = AXIS2_PLACEMENT_3D ( 'NONE', #61, #81, #279 ) ;
#17 = DIRECTION ( 'NONE',  ( 0.0000000000000000000, 1.000000000000000000, 1.707404996040164800E-016 ) ) ;
#18 = DIRECTION ( 'NONE',  ( 0.0000000000000000000, -1.000000000000000000, -1.850371707708594100E-016 ) ) ;
#19 = DESIGN_CONTEXT ( 'detailed design', #110, 'design' ) ;
#20 =( NAMED_UNIT ( * ) PLANE_ANGLE_UNIT ( ) SI_UNIT ( $, .RADIAN. ) );
#21 = VECTOR ( 'NONE', #154, 39.37007874015748100 ) ;
#22 = CC_DESIGN_PERSON_AND_ORGANIZATION_ASSIGNMENT ( #251, #296, ( #235 ) ) ;
#23 = ORIENTED_EDGE ( 'NONE', *, *, #169, .T. ) ;
#24 = DIRECTION ( 'NONE',  ( 0.0000000000000000000, 1.000000000000000000, 1.707404996040164800E-016 ) ) ;
#25 = CIRCLE ( 'NONE', #50, 0.4944322300693972900 ) ;
#26 = CARTESIAN_POINT ( 'NONE',  ( 6.123233995736764800E-017, 0.4999999999999999400, 0.07839148093324484200 ) ) ;
#27 = CC_DESIGN_SECURITY_CLASSIFICATION ( #15, ( #235 ) ) ;
#28 = FACE_OUTER_BOUND ( 'NONE', #208, .T. ) ;
#29 = AXIS2_PLACEMENT_3D ( 'NONE', #8, #107, #18 ) ;
#30 = DIRECTION ( 'NONE',  ( 0.0000000000000000000, -1.000000000000000000, -1.726631975225924500E-016 ) ) ;
#31 = CARTESIAN_POINT ( 'NONE',  ( 6.055048479497718700E-017, 0.4944322300693956800, -0.06346697275371655800 ) ) ;
#32 = AXIS2_PLACEMENT_3D ( 'NONE', #305, #132, #320 ) ;
#33 = APPROVAL ( #283, 'UNSPECIFIED' ) ;
#34 =( CONVERSION_BASED_UNIT ( 'INCH', #136 ) LENGTH_UNIT ( ) NAMED_UNIT ( #101 ) );
#35 = AXIS2_PLACEMENT_3D ( 'NONE', #180, #238, #245 ) ;
#36 = ORIENTED_EDGE ( 'NONE', *, *, #94, .F. ) ;
#37 = PRODUCT_RELATED_PRODUCT_CATEGORY ( 'detail', '', ( #178 ) ) ;
#38 = DIRECTION ( 'NONE',  ( -0.0000000000000000000, -1.836909530733566100E-016, 1.000000000000000000 ) ) ;
#39 = DIRECTION ( 'NONE',  ( 0.0000000000000000000, 0.0000000000000000000, 1.000000000000000000 ) ) ;
#40 = LOCAL_TIME ( 14, 7, 10.00000000000000000, #207 ) ;
#41 = ORIENTED_EDGE ( 'NONE', *, *, #128, .T. ) ;
#42 = FACE_OUTER_BOUND ( 'NONE', #215, .T. ) ;
#43 = CYLINDRICAL_SURFACE ( 'NONE', #280, 0.5000000000000000000 ) ;
#44 = DIRECTION ( 'NONE',  ( 1.000000000000000000, 0.0000000000000000000, 0.0000000000000000000 ) ) ;
#45 = CARTESIAN_POINT ( 'NONE',  ( 0.0000000000000000000, -9.391061551228608700E-019, 0.07839148093324474500 ) ) ;
#46 = SECURITY_CLASSIFICATION_LEVEL ( 'unclassified' ) ;
#47 = AXIS2_PLACEMENT_3D ( 'NONE', #131, #14, #4 ) ;
#48 = PERSON_AND_ORGANIZATION_ROLE ( 'classification_officer' ) ;
#49 = ORIENTED_EDGE ( 'NONE', *, *, #262, .T. ) ;
#50 = AXIS2_PLACEMENT_3D ( 'NONE', #326, #83, #291 ) ;
#51 = CARTESIAN_POINT ( 'NONE',  ( 6.123233995736764800E-017, -0.4999999999999999400, 0.07839148093324466200 ) ) ;
#52 = ORIENTED_EDGE ( 'NONE', *, *, #177, .T. ) ;
#53 = FACE_OUTER_BOUND ( 'NONE', #91, .T. ) ;
#54 = DIRECTION ( 'NONE',  ( -1.224646799147353200E-016, -1.000000000000000000, 0.0000000000000000000 ) ) ;
#55 = CARTESIAN_POINT ( 'NONE',  ( 0.0000000000000000000, 0.0000000000000000000, 0.07327905629060145500 ) ) ;
#56 = DIRECTION ( 'NONE',  ( 0.0000000000000000000, -1.000000000000000000, -1.899295172748516000E-016 ) ) ;
#57 = VERTEX_POINT ( 'NONE', #263 ) ;
#58 = CIRCLE ( 'NONE', #310, 0.4944322300693975200 ) ;
#59 = ORIENTED_EDGE ( 'NONE', *, *, #163, .F. ) ;
#60 = AXIS2_PLACEMENT_3D ( 'NONE', #242, #250, #30 ) ;
#61 = CARTESIAN_POINT ( 'NONE',  ( 0.0000000000000000000, 2.409625943910189600E-017, -0.05789920282311279000 ) ) ;
#62 = VERTEX_POINT ( 'NONE', #6 ) ;
#63 = DIRECTION ( 'NONE',  ( -0.0000000000000000000, -1.836909530733566100E-016, 1.000000000000000000 ) ) ;
#64 = CARTESIAN_POINT ( 'NONE',  ( 0.0000000000000000000, 2.804381347851124900E-015, 0.07327905629060256500 ) ) ;
#65 = FACE_OUTER_BOUND ( 'NONE', #68, .T. ) ;
#66 = VERTEX_POINT ( 'NONE', #166 ) ;
#67 = PERSON_AND_ORGANIZATION_ROLE ( 'creator' ) ;
#68 = EDGE_LOOP ( 'NONE', ( #311, #258, #211, #210 ) ) ;
#69 = ORIENTED_EDGE ( 'NONE', *, *, #226, .F. ) ;
#70 = DIRECTION ( 'NONE',  ( -1.000000000000000000, 0.0000000000000000000, -0.0000000000000000000 ) ) ;
#71 = CARTESIAN_POINT ( 'NONE',  ( 0.0000000000000000000, 2.511900840414769300E-017, -0.06346697275371662700 ) ) ;
#72 = CARTESIAN_POINT ( 'NONE',  ( 6.123233995736766000E-017, 0.5000000000000000000, 0.07327905629060155200 ) ) ;
#73 = ORIENTED_EDGE ( 'NONE', *, *, #194, .F. ) ;
#74 = DIRECTION ( 'NONE',  ( -0.0000000000000000000, -1.836909530733566100E-016, 1.000000000000000000 ) ) ;
#75 = VECTOR ( 'NONE', #149, 39.37007874015748100 ) ;
#76 = ADVANCED_FACE ( 'NONE', ( #28 ), #146, .T. ) ;
#77 = CC_DESIGN_DATE_AND_TIME_ASSIGNMENT ( #255, #313, ( #214 ) ) ;
#78 = CARTESIAN_POINT ( 'NONE',  ( 0.0000000000000000000, 2.511900840414769300E-017, -0.06346697275371662700 ) ) ;
#79 = ADVANCED_FACE ( 'NONE', ( #104 ), #134, .F. ) ;
#80 = SHAPE_DEFINITION_REPRESENTATION ( #197, #158 ) ;
#81 = DIRECTION ( 'NONE',  ( -0.0000000000000000000, -1.836909530733566100E-016, 1.000000000000000000 ) ) ;
#82 = PERSON_AND_ORGANIZATION ( #10, #88 ) ;
#83 = DIRECTION ( 'NONE',  ( -0.0000000000000000000, -1.836909530733566100E-016, 1.000000000000000000 ) ) ;
#84 = ORIENTED_EDGE ( 'NONE', *, *, #123, .F. ) ;
#85 = CONICAL_SURFACE ( 'NONE', #230, 0.4999999999999999400, 0.7853981633974375100 ) ;
#86 = ORIENTED_EDGE ( 'NONE', *, *, #177, .F. ) ;
#87 = DIRECTION ( 'NONE',  ( -1.000000000000000000, 0.0000000000000000000, 0.0000000000000000000 ) ) ;
#88 = ORGANIZATION ( 'UNSPECIFIED', 'UNSPECIFIED', '' ) ;
#89 = EDGE_LOOP ( 'NONE', ( #73, #195, #84 ) ) ;
#90 = APPLICATION_CONTEXT ( 'configuration controlled 3d designs of mechanical parts and assemblies' ) ;
#91 = EDGE_LOOP ( 'NONE', ( #2, #271, #176, #203 ) ) ;
#92 = CARTESIAN_POINT ( 'NONE',  ( 0.0000000000000000000, 7.231807861180451700E-016, -0.08420125867002968600 ) ) ;
#93 = APPROVAL_STATUS ( 'not_yet_approved' ) ;
#94 = EDGE_CURVE ( 'NONE', #189, #220, #286, .T. ) ;
#95 = PERSON_AND_ORGANIZATION ( #10, #88 ) ;
#96 = AXIS2_PLACEMENT_3D ( 'NONE', #100, #39, #44 ) ;
#97 = CARTESIAN_POINT ( 'NONE',  ( 0.0000000000000000000, -9.391061551228608700E-019, 0.07839148093324474500 ) ) ;
#98 = ORIENTED_EDGE ( 'NONE', *, *, #254, .T. ) ;
#99 = EDGE_CURVE ( 'NONE', #259, #62, #143, .T. ) ;
#100 = CARTESIAN_POINT ( 'NONE',  ( 0.0000000000000000000, 0.0000000000000000000, 0.0000000000000000000 ) ) ;
#101 = DIMENSIONAL_EXPONENTS ( 1.000000000000000000, 0.0000000000000000000, 0.0000000000000000000, 0.0000000000000000000, 0.0000000000000000000, 0.0000000000000000000, 0.0000000000000000000 ) ;
#102 = PERSON_AND_ORGANIZATION ( #10, #88 ) ;
#103 = DATE_AND_TIME ( #173, #40 ) ;
#104 = FACE_OUTER_BOUND ( 'NONE', #171, .T. ) ;
#105 = CIRCLE ( 'NONE', #16, 0.5000000000000000000 ) ;
#106 = CARTESIAN_POINT ( 'NONE',  ( 0.0000000000000000000, 2.511900840414769300E-017, -0.06346697275371662700 ) ) ;
#107 = DIRECTION ( 'NONE',  ( 1.000000000000000000, 0.0000000000000000000, 0.0000000000000000000 ) ) ;
#108 = ORIENTED_EDGE ( 'NONE', *, *, #163, .T. ) ;
#109 = APPROVAL_ROLE ( '' ) ;
#110 = APPLICATION_CONTEXT ( 'configuration controlled 3d designs of mechanical parts and assemblies' ) ;
#111 = CARTESIAN_POINT ( 'NONE',  ( 0.0000000000000000000, -0.5000000000000000000, 0.07327905629060135800 ) ) ;
#112 = FACE_OUTER_BOUND ( 'NONE', #181, .T. ) ;
#113 = EDGE_LOOP ( 'NONE', ( #227, #288, #248 ) ) ;
#114 =( GEOMETRIC_REPRESENTATION_CONTEXT ( 3 ) GLOBAL_UNCERTAINTY_ASSIGNED_CONTEXT ( ( #308 ) ) GLOBAL_UNIT_ASSIGNED_CONTEXT ( ( #34, #20, #274 ) ) REPRESENTATION_CONTEXT ( 'NONE', 'WORKASPACE' ) );
#115 = DIRECTION ( 'NONE',  ( 0.0000000000000000000, -1.000000000000000000, -1.878145495644180800E-016 ) ) ;
#116 = DIRECTION ( 'NONE',  ( 1.000000000000000000, 0.0000000000000000000, 0.0000000000000000000 ) ) ;
#117 = APPLICATION_PROTOCOL_DEFINITION ( 'international standard', 'config_control_design', 1994, #110 ) ;
#118 = DIRECTION ( 'NONE',  ( 0.0000000000000000000, -1.000000000000000000, -1.899295172748516000E-016 ) ) ;
#119 = DIRECTION ( 'NONE',  ( 0.0000000000000000000, -1.000000000000000000, -1.878145495644180800E-016 ) ) ;
#120 = APPROVAL_ROLE ( '' ) ;
#121 = VECTOR ( 'NONE', #236, 39.37007874015748100 ) ;
#122 = DATE_TIME_ROLE ( 'classification_date' ) ;
#123 = EDGE_CURVE ( 'NONE', #66, #324, #58, .T. ) ;
#124 = DIRECTION ( 'NONE',  ( -1.000000000000000000, 1.224646799147353200E-016, 2.249565377136128300E-032 ) ) ;
#125 = LOCAL_TIME ( 14, 7, 10.00000000000000000, #256 ) ;
#126 = AXIS2_PLACEMENT_3D ( 'NONE', #237, #87, #269 ) ;
#127 = VERTEX_POINT ( 'NONE', #198 ) ;
#128 = EDGE_CURVE ( 'NONE', #62, #127, #221, .T. ) ;
#129 = PERSON_AND_ORGANIZATION ( #10, #88 ) ;
#130 = CC_DESIGN_PERSON_AND_ORGANIZATION_ASSIGNMENT ( #174, #48, ( #15 ) ) ;
#131 = CARTESIAN_POINT ( 'NONE',  ( 0.0000000000000000000, -9.391061551228608700E-019, 0.07839148093324474500 ) ) ;
#132 = DIRECTION ( 'NONE',  ( -1.000000000000000000, 0.0000000000000000000, 0.0000000000000000000 ) ) ;
#133 = ADVANCED_FACE ( 'NONE', ( #42 ), #285, .T. ) ;
#134 = SPHERICAL_SURFACE ( 'NONE', #32, 11.45003937007874100 ) ;
#135 = AXIS2_PLACEMENT_3D ( 'NONE', #106, #170, #260 ) ;
#136 = LENGTH_MEASURE_WITH_UNIT ( LENGTH_MEASURE( 0.02539999999999999900 ), #322 );
#137 = DIRECTION ( 'NONE',  ( 0.0000000000000000000, 1.836909530733566100E-016, -1.000000000000000000 ) ) ;
#138 = APPROVAL_PERSON_ORGANIZATION ( #129, #33, #109 ) ;
#139 = ORIENTED_EDGE ( 'NONE', *, *, #226, .T. ) ;
#140 = CC_DESIGN_APPROVAL ( #33, ( #214 ) ) ;
#141 = COORDINATED_UNIVERSAL_TIME_OFFSET ( 5, 0, .BEHIND. ) ;
#142 = DIRECTION ( 'NONE',  ( 1.000000000000000000, 0.0000000000000000000, 0.0000000000000000000 ) ) ;
#143 = CIRCLE ( 'NONE', #294, 0.5000000000000000000 ) ;
#144 = SPHERICAL_SURFACE ( 'NONE', #11, 5.905511811023623100 ) ;
#145 = CIRCLE ( 'NONE', #47, 0.4999999999999999400 ) ;
#146 = CYLINDRICAL_SURFACE ( 'NONE', #160, 0.5000000000000000000 ) ;
#147 = LOCAL_TIME ( 14, 7, 10.00000000000000000, #141 ) ;
#148 = ORIENTED_EDGE ( 'NONE', *, *, #262, .F. ) ;
#149 = DIRECTION ( 'NONE',  ( -0.0000000000000000000, -1.836909530733566100E-016, 1.000000000000000000 ) ) ;
#150 = CC_DESIGN_APPROVAL ( #278, ( #235 ) ) ;
#151 = APPROVAL_PERSON_ORGANIZATION ( #82, #303, #120 ) ;
#152 = EDGE_LOOP ( 'NONE', ( #86, #315, #41, #59 ) ) ;
#153 = VERTEX_POINT ( 'NONE', #92 ) ;
#154 = DIRECTION ( 'NONE',  ( -0.0000000000000000000, -1.836909530733566100E-016, 1.000000000000000000 ) ) ;
#155 = AXIS2_PLACEMENT_3D ( 'NONE', #247, #124, #54 ) ;
#156 = CALENDAR_DATE ( 2018, 1, 6 ) ;
#157 = DIRECTION ( 'NONE',  ( 0.0000000000000000000, 1.836909530733566100E-016, -1.000000000000000000 ) ) ;
#158 = ADVANCED_BREP_SHAPE_REPRESENTATION ( '20167-E0W', ( #298, #96 ), #114 ) ;
#159 = DATE_AND_TIME ( #156, #147 ) ;
#160 = AXIS2_PLACEMENT_3D ( 'NONE', #55, #1, #115 ) ;
#161 = LINE ( 'NONE', #309, #121 ) ;
#162 = APPROVAL_DATE_TIME ( #284, #303 ) ;
#163 = EDGE_CURVE ( 'NONE', #229, #127, #304, .T. ) ;
#164 = EDGE_CURVE ( 'NONE', #153, #324, #190, .T. ) ;
#165 = CARTESIAN_POINT ( 'NONE',  ( 0.0000000000000000000, 0.0000000000000000000, 5.821310552353593500 ) ) ;
#166 = CARTESIAN_POINT ( 'NONE',  ( 0.0000000000000000000, -0.4944322300693946300, -0.06346697275371665500 ) ) ;
#167 = ORIENTED_EDGE ( 'NONE', *, *, #292, .F. ) ;
#168 = CC_DESIGN_DATE_AND_TIME_ASSIGNMENT ( #103, #122, ( #15 ) ) ;
#169 = EDGE_CURVE ( 'NONE', #127, #229, #145, .T. ) ;
#170 = DIRECTION ( 'NONE',  ( -0.0000000000000000000, -1.836909530733566100E-016, 1.000000000000000000 ) ) ;
#171 = EDGE_LOOP ( 'NONE', ( #69, #204, #98 ) ) ;
#172 = DIRECTION ( 'NONE',  ( 0.0000000000000000000, -1.000000000000000000, -1.878145495644180800E-016 ) ) ;
#173 = CALENDAR_DATE ( 2018, 1, 6 ) ;
#174 = PERSON_AND_ORGANIZATION ( #10, #88 ) ;
#175 = EDGE_CURVE ( 'NONE', #324, #66, #199, .T. ) ;
#176 = ORIENTED_EDGE ( 'NONE', *, *, #185, .T. ) ;
#177 = EDGE_CURVE ( 'NONE', #259, #229, #307, .T. ) ;
#178 = PRODUCT ( '20167-E0W', '20167-E0W', '', ( #316 ) ) ;
#179 = LINE ( 'NONE', #51, #293 ) ;
#180 = CARTESIAN_POINT ( 'NONE',  ( 0.0000000000000000000, 0.0000000000000000000, 5.821310552353593500 ) ) ;
#181 = EDGE_LOOP ( 'NONE', ( #36, #139, #49 ) ) ;
#182 = LINE ( 'NONE', #225, #202 ) ;
#183 = ADVANCED_FACE ( 'NONE', ( #252 ), #85, .T. ) ;
#184 = APPROVAL_DATE_TIME ( #159, #33 ) ;
#185 = EDGE_CURVE ( 'NONE', #66, #62, #161, .T. ) ;
#186 = ORIENTED_EDGE ( 'NONE', *, *, #292, .T. ) ;
#187 = PERSON_AND_ORGANIZATION ( #10, #88 ) ;
#188 = AXIS2_PLACEMENT_3D ( 'NONE', #165, #70, #234 ) ;
#189 = VERTEX_POINT ( 'NONE', #64 ) ;
#190 = CIRCLE ( 'NONE', #35, 5.905511811023623100 ) ;
#191 = CC_DESIGN_PERSON_AND_ORGANIZATION_ASSIGNMENT ( #187, #67, ( #214 ) ) ;
#192 = CIRCLE ( 'NONE', #60, 0.4944322300693972900 ) ;
#193 = COORDINATED_UNIVERSAL_TIME_OFFSET ( 5, 0, .BEHIND. ) ;
#194 = EDGE_CURVE ( 'NONE', #153, #66, #222, .T. ) ;
#195 = ORIENTED_EDGE ( 'NONE', *, *, #164, .T. ) ;
#196 = AXIS2_PLACEMENT_3D ( 'NONE', #71, #312, #223 ) ;
#197 = PRODUCT_DEFINITION_SHAPE ( 'NONE', 'NONE',  #214 ) ;
#198 = CARTESIAN_POINT ( 'NONE',  ( 0.0000000000000000000, -0.4999999999999999400, 0.07839148093324466200 ) ) ;
#199 = CIRCLE ( 'NONE', #219, 0.4944322300693975200 ) ;
#200 = CARTESIAN_POINT ( 'NONE',  ( 0.0000000000000000000, 0.0000000000000000000, 5.821310552353593500 ) ) ;
#201 = EDGE_LOOP ( 'NONE', ( #12, #148, #186, #108 ) ) ;
#202 = VECTOR ( 'NONE', #228, 39.37007874015748100 ) ;
#203 = ORIENTED_EDGE ( 'NONE', *, *, #99, .F. ) ;
#204 = ORIENTED_EDGE ( 'NONE', *, *, #94, .T. ) ;
#205 = DIRECTION ( 'NONE',  ( 0.0000000000000000000, -1.000000000000000000, -1.850371707708594100E-016 ) ) ;
#206 = CARTESIAN_POINT ( 'NONE',  ( 0.0000000000000000000, 2.511900840414769300E-017, -0.06346697275371662700 ) ) ;
#207 = COORDINATED_UNIVERSAL_TIME_OFFSET ( 5, 0, .BEHIND. ) ;
#208 = EDGE_LOOP ( 'NONE', ( #273, #52, #295, #216 ) ) ;
#209 = EDGE_CURVE ( 'NONE', #324, #259, #182, .T. ) ;
#210 = ORIENTED_EDGE ( 'NONE', *, *, #185, .F. ) ;
#211 = ORIENTED_EDGE ( 'NONE', *, *, #246, .F. ) ;
#212 = CALENDAR_DATE ( 2018, 1, 6 ) ;
#213 = ADVANCED_FACE ( 'NONE', ( #53 ), #272, .T. ) ;
#214 = PRODUCT_DEFINITION ( 'UNKNOWN', '', #235, #19 ) ;
#215 = EDGE_LOOP ( 'NONE', ( #266, #297, #23, #167 ) ) ;
#216 = ORIENTED_EDGE ( 'NONE', *, *, #128, .F. ) ;
#217 = PERSON_AND_ORGANIZATION_ROLE ( 'design_supplier' ) ;
#218 = ADVANCED_FACE ( 'NONE', ( #321 ), #144, .T. ) ;
#219 = AXIS2_PLACEMENT_3D ( 'NONE', #206, #299, #118 ) ;
#220 = VERTEX_POINT ( 'NONE', #287 ) ;
#221 = LINE ( 'NONE', #111, #75 ) ;
#222 = CIRCLE ( 'NONE', #188, 5.905511811023623100 ) ;
#223 = DIRECTION ( 'NONE',  ( 0.0000000000000000000, -1.000000000000000000, -1.899295172748516000E-016 ) ) ;
#224 = LOCAL_TIME ( 14, 7, 10.00000000000000000, #193 ) ;
#225 = CARTESIAN_POINT ( 'NONE',  ( 6.055048479497754500E-017, 0.4944322300693975200, -0.06346697275371653000 ) ) ;
#226 = EDGE_CURVE ( 'NONE', #189, #57, #9, .T. ) ;
#227 = ORIENTED_EDGE ( 'NONE', *, *, #164, .F. ) ;
#228 = DIRECTION ( 'NONE',  ( 8.659560562353870400E-017, 0.7071067811864606400, 0.7071067811866343900 ) ) ;
#229 = VERTEX_POINT ( 'NONE', #26 ) ;
#230 = AXIS2_PLACEMENT_3D ( 'NONE', #45, #137, #17 ) ;
#231 = CARTESIAN_POINT ( 'NONE',  ( 0.0000000000000000000, -9.391061551228608700E-019, 0.07839148093324474500 ) ) ;
#232 = FACE_OUTER_BOUND ( 'NONE', #89, .T. ) ;
#233 = CC_DESIGN_APPROVAL ( #303, ( #15 ) ) ;
#234 = DIRECTION ( 'NONE',  ( 0.0000000000000000000, 0.0000000000000000000, 1.000000000000000000 ) ) ;
#235 = PRODUCT_DEFINITION_FORMATION_WITH_SPECIFIED_SOURCE ( 'ANY', '', #178, .NOT_KNOWN. ) ;
#236 = DIRECTION ( 'NONE',  ( 0.0000000000000000000, -0.7071067811864608600, 0.7071067811866341700 ) ) ;
#237 = CARTESIAN_POINT ( 'NONE',  ( 0.0000000000000000000, 0.0000000000000000000, 11.52331842636934300 ) ) ;
#238 = DIRECTION ( 'NONE',  ( 1.000000000000000000, -1.224646799147353200E-016, -2.249565377136128300E-032 ) ) ;
#239 = APPROVAL_STATUS ( 'not_yet_approved' ) ;
#240 = SPHERICAL_SURFACE ( 'NONE', #126, 11.45003937007874100 ) ;
#241 = APPROVAL_ROLE ( '' ) ;
#242 = CARTESIAN_POINT ( 'NONE',  ( 0.0000000000000000000, -1.961855120168452400E-018, 0.08395925086384747900 ) ) ;
#243 = APPROVAL_DATE_TIME ( #327, #278 ) ;
#244 = CALENDAR_DATE ( 2018, 1, 6 ) ;
#245 = DIRECTION ( 'NONE',  ( 1.224646799147353200E-016, 1.000000000000000000, 0.0000000000000000000 ) ) ;
#246 = EDGE_CURVE ( 'NONE', #62, #259, #105, .T. ) ;
#247 = CARTESIAN_POINT ( 'NONE',  ( 0.0000000000000000000, 0.0000000000000000000, 11.52331842636934300 ) ) ;
#248 = ORIENTED_EDGE ( 'NONE', *, *, #175, .F. ) ;
#249 = ADVANCED_FACE ( 'NONE', ( #112 ), #240, .F. ) ;
#250 = DIRECTION ( 'NONE',  ( -0.0000000000000000000, -1.836909530733566100E-016, 1.000000000000000000 ) ) ;
#251 = PERSON_AND_ORGANIZATION ( #10, #88 ) ;
#252 = FACE_OUTER_BOUND ( 'NONE', #201, .T. ) ;
#253 = CARTESIAN_POINT ( 'NONE',  ( 6.123233995736766000E-017, 0.5000000000000000000, -0.05789920282311269300 ) ) ;
#254 = EDGE_CURVE ( 'NONE', #220, #57, #192, .T. ) ;
#255 = DATE_AND_TIME ( #244, #224 ) ;
#256 = COORDINATED_UNIVERSAL_TIME_OFFSET ( 5, 0, .BEHIND. ) ;
#257 = DIRECTION ( 'NONE',  ( 0.0000000000000000000, 0.0000000000000000000, -1.000000000000000000 ) ) ;
#258 = ORIENTED_EDGE ( 'NONE', *, *, #209, .T. ) ;
#259 = VERTEX_POINT ( 'NONE', #253 ) ;
#260 = DIRECTION ( 'NONE',  ( 0.0000000000000000000, -1.000000000000000000, -1.899295172748516000E-016 ) ) ;
#261 = DIRECTION ( 'NONE',  ( 0.0000000000000000000, -1.000000000000000000, -1.707404996040164800E-016 ) ) ;
#262 = EDGE_CURVE ( 'NONE', #57, #220, #25, .T. ) ;
#263 = CARTESIAN_POINT ( 'NONE',  ( 0.0000000000000000000, 0.4944322300694123900, 0.08395925086384806200 ) ) ;
#264 = CC_DESIGN_PERSON_AND_ORGANIZATION_ASSIGNMENT ( #102, #217, ( #235 ) ) ;
#265 = EDGE_CURVE ( 'NONE', #220, #127, #179, .T. ) ;
#266 = ORIENTED_EDGE ( 'NONE', *, *, #254, .F. ) ;
#267 = DIRECTION ( 'NONE',  ( 8.659560562354839200E-017, -0.7071067811865398000, -0.7071067811865552300 ) ) ;
#268 = PERSON_AND_ORGANIZATION ( #10, #88 ) ;
#269 = DIRECTION ( 'NONE',  ( 0.0000000000000000000, 1.000000000000000000, 1.908708192429893100E-016 ) ) ;
#270 = CLOSED_SHELL ( 'NONE', ( #133, #76, #275, #301, #79, #249, #218, #213, #13, #183 ) ) ;
#271 = ORIENTED_EDGE ( 'NONE', *, *, #175, .T. ) ;
#272 = CONICAL_SURFACE ( 'NONE', #196, 0.4944322300693975200, 0.7853981633973256000 ) ;
#273 = ORIENTED_EDGE ( 'NONE', *, *, #246, .T. ) ;
#274 =( NAMED_UNIT ( * ) SI_UNIT ( $, .STERADIAN. ) SOLID_ANGLE_UNIT ( ) );
#275 = ADVANCED_FACE ( 'NONE', ( #65 ), #323, .T. ) ;
#276 = CARTESIAN_POINT ( 'NONE',  ( 0.0000000000000000000, 2.409625943910189600E-017, -0.05789920282311279000 ) ) ;
#277 = DIRECTION ( 'NONE',  ( -0.0000000000000000000, -1.836909530733566100E-016, 1.000000000000000000 ) ) ;
#278 = APPROVAL ( #239, 'UNSPECIFIED' ) ;
#279 = DIRECTION ( 'NONE',  ( 0.0000000000000000000, -1.000000000000000000, -1.878145495644180800E-016 ) ) ;
#280 = AXIS2_PLACEMENT_3D ( 'NONE', #314, #277, #119 ) ;
#281 = VECTOR ( 'NONE', #328, 39.37007874015748100 ) ;
#282 = APPROVAL_PERSON_ORGANIZATION ( #268, #278, #241 ) ;
#283 = APPROVAL_STATUS ( 'not_yet_approved' ) ;
#284 = DATE_AND_TIME ( #212, #125 ) ;
#285 = CONICAL_SURFACE ( 'NONE', #5, 0.4999999999999999400, 0.7853981633974375100 ) ;
#286 = CIRCLE ( 'NONE', #155, 11.45003937007874100 ) ;
#287 = CARTESIAN_POINT ( 'NONE',  ( -6.055048479497935700E-017, -0.4944322300694102300, 0.08395925086384795100 ) ) ;
#288 = ORIENTED_EDGE ( 'NONE', *, *, #194, .T. ) ;
#289 = LINE ( 'NONE', #325, #281 ) ;
#290 = COORDINATED_UNIVERSAL_TIME_OFFSET ( 5, 0, .BEHIND. ) ;
#291 = DIRECTION ( 'NONE',  ( 0.0000000000000000000, -1.000000000000000000, -1.726631975225924500E-016 ) ) ;
#292 = EDGE_CURVE ( 'NONE', #57, #229, #289, .T. ) ;
#293 = VECTOR ( 'NONE', #267, 39.37007874015748100 ) ;
#294 = AXIS2_PLACEMENT_3D ( 'NONE', #276, #38, #172 ) ;
#295 = ORIENTED_EDGE ( 'NONE', *, *, #169, .F. ) ;
#296 = PERSON_AND_ORGANIZATION_ROLE ( 'creator' ) ;
#297 = ORIENTED_EDGE ( 'NONE', *, *, #265, .T. ) ;
#298 = MANIFOLD_SOLID_BREP ( '20167-001-1-solid1', #270 ) ;
#299 = DIRECTION ( 'NONE',  ( -0.0000000000000000000, -1.836909530733566100E-016, 1.000000000000000000 ) ) ;
#300 = SPHERICAL_SURFACE ( 'NONE', #29, 5.905511811023623100 ) ;
#301 = ADVANCED_FACE ( 'NONE', ( #232 ), #300, .T. ) ;
#302 = CC_DESIGN_PERSON_AND_ORGANIZATION_ASSIGNMENT ( #95, #317, ( #178 ) ) ;
#303 = APPROVAL ( #93, 'UNSPECIFIED' ) ;
#304 = CIRCLE ( 'NONE', #7, 0.4999999999999999400 ) ;
#305 = CARTESIAN_POINT ( 'NONE',  ( 0.0000000000000000000, 0.0000000000000000000, 11.52331842636934300 ) ) ;
#306 = LOCAL_TIME ( 14, 7, 10.00000000000000000, #290 ) ;
#307 = LINE ( 'NONE', #72, #21 ) ;
#308 = UNCERTAINTY_MEASURE_WITH_UNIT (LENGTH_MEASURE( 1.000000000000000100E-005 ), #34, 'distance_accuracy_value', 'NONE');
#309 = CARTESIAN_POINT ( 'NONE',  ( 0.0000000000000000000, -0.4944322300693975200, -0.06346697275371672400 ) ) ;
#310 = AXIS2_PLACEMENT_3D ( 'NONE', #78, #74, #56 ) ;
#311 = ORIENTED_EDGE ( 'NONE', *, *, #123, .T. ) ;
#312 = DIRECTION ( 'NONE',  ( -0.0000000000000000000, -1.836909530733566100E-016, 1.000000000000000000 ) ) ;
#313 = DATE_TIME_ROLE ( 'creation_date' ) ;
#314 = CARTESIAN_POINT ( 'NONE',  ( 0.0000000000000000000, 0.0000000000000000000, 0.07327905629060145500 ) ) ;
#315 = ORIENTED_EDGE ( 'NONE', *, *, #99, .T. ) ;
#316 = MECHANICAL_CONTEXT ( 'NONE', #90, 'mechanical' ) ;
#317 = PERSON_AND_ORGANIZATION_ROLE ( 'design_owner' ) ;
#318 = CALENDAR_DATE ( 2018, 1, 6 ) ;
#319 = APPLICATION_PROTOCOL_DEFINITION ( 'international standard', 'config_control_design', 1994, #90 ) ;
#320 = DIRECTION ( 'NONE',  ( 0.0000000000000000000, 1.000000000000000000, 1.908708192429893100E-016 ) ) ;
#321 = FACE_OUTER_BOUND ( 'NONE', #113, .T. ) ;
#322 =( LENGTH_UNIT ( ) NAMED_UNIT ( * ) SI_UNIT ( $, .METRE. ) );
#323 = CONICAL_SURFACE ( 'NONE', #135, 0.4944322300693975200, 0.7853981633973256000 ) ;
#324 = VERTEX_POINT ( 'NONE', #31 ) ;
#325 = CARTESIAN_POINT ( 'NONE',  ( 0.0000000000000000000, 0.4999999999999999400, 0.07839148093324484200 ) ) ;
#326 = CARTESIAN_POINT ( 'NONE',  ( 0.0000000000000000000, -1.961855120168452400E-018, 0.08395925086384747900 ) ) ;
#327 = DATE_AND_TIME ( #318, #306 ) ;
#328 = DIRECTION ( 'NONE',  ( 0.0000000000000000000, 0.7071067811865400200, -0.7071067811865550100 ) ) ;
#329 = FACE_OUTER_BOUND ( 'NONE', #152, .T. ) ;
#330 = CARTESIAN_POINT ( 'NONE',  ( 0.0000000000000000000, 0.0000000000000000000, 11.52331842636934300 ) ) ;
ENDSEC;
END-ISO-10303-21;
