ISO-10303-21;
HEADER;
FILE_DESCRIPTION (( 'STEP AP203' ),
    '1' );
FILE_NAME ('Web Model 48201_36980.step',
    '2019-01-07T15:22:27',
    ( '' ),
    ( '' ),
    'SwSTEP 2.0',
    'SolidWorks 2016',
    '' );
FILE_SCHEMA (( 'CONFIG_CONTROL_DESIGN' ));
ENDSEC;

DATA;
#1 = FACE_OUTER_BOUND ( 'NONE', #17, .T. ) ;
#2 = ORIENTED_EDGE ( 'NONE', *, *, #146, .T. ) ;
#3 = ORIENTED_EDGE ( 'NONE', *, *, #58, .T. ) ;
#4 = CARTESIAN_POINT ( 'NONE',  ( -12.50000000000000000, 12.50000000000000000, 1.000000000000000000 ) ) ;
#5 = PERSON_AND_ORGANIZATION ( #182, #53 ) ;
#6 = AXIS2_PLACEMENT_3D ( 'NONE', #42, #229, #28 ) ;
#7 = CARTESIAN_POINT ( 'NONE',  ( 0.0000000000000000000, 0.0000000000000000000, 1.000000000000000000 ) ) ;
#8 = CARTESIAN_POINT ( 'NONE',  ( 12.50000000000000000, -12.50000000000000000, 1.000000000000000000 ) ) ;
#9 = CARTESIAN_POINT ( 'NONE',  ( -12.50000000000000000, 12.50000000000000000, 1.000000000000000000 ) ) ;
#10 = ORIENTED_EDGE ( 'NONE', *, *, #186, .T. ) ;
#11 = DIRECTION ( 'NONE',  ( 0.0000000000000000000, 1.000000000000000000, 0.0000000000000000000 ) ) ;
#12 = APPROVAL_ROLE ( '' ) ;
#13 = APPROVAL_STATUS ( 'not_yet_approved' ) ;
#14 = COORDINATED_UNIVERSAL_TIME_OFFSET ( 5, 0, .BEHIND. ) ;
#15 = VERTEX_POINT ( 'NONE', #92 ) ;
#16 = ORIENTED_EDGE ( 'NONE', *, *, #20, .T. ) ;
#17 = EDGE_LOOP ( 'NONE', ( #128, #185, #201, #50 ) ) ;
#18 = CC_DESIGN_PERSON_AND_ORGANIZATION_ASSIGNMENT ( #120, #217, ( #194 ) ) ;
#19 = VECTOR ( 'NONE', #153, 1000.000000000000000 ) ;
#20 = EDGE_CURVE ( 'NONE', #51, #136, #190, .T. ) ;
#21 = CARTESIAN_POINT ( 'NONE',  ( -12.50000000000000000, 12.50000000000000000, -1.000000000000000000 ) ) ;
#22 = DATE_AND_TIME ( #94, #168 ) ;
#23 = CARTESIAN_POINT ( 'NONE',  ( -12.50000000000000000, -12.50000000000000000, -1.000000000000000000 ) ) ;
#24 = ORIENTED_EDGE ( 'NONE', *, *, #197, .T. ) ;
#25 = CARTESIAN_POINT ( 'NONE',  ( -12.50000000000000000, -12.50000000000000000, -1.000000000000000000 ) ) ;
#26 = COORDINATED_UNIVERSAL_TIME_OFFSET ( 5, 0, .BEHIND. ) ;
#27 = VERTEX_POINT ( 'NONE', #21 ) ;
#28 = DIRECTION ( 'NONE',  ( 0.0000000000000000000, -0.0000000000000000000, 1.000000000000000000 ) ) ;
#29 = DIRECTION ( 'NONE',  ( 0.0000000000000000000, -0.0000000000000000000, -1.000000000000000000 ) ) ;
#30 = PERSON_AND_ORGANIZATION ( #182, #53 ) ;
#31 = DATE_TIME_ROLE ( 'classification_date' ) ;
#32 = CC_DESIGN_PERSON_AND_ORGANIZATION_ASSIGNMENT ( #171, #172, ( #234 ) ) ;
#33 = VECTOR ( 'NONE', #150, 1000.000000000000000 ) ;
#34 = VECTOR ( 'NONE', #93, 1000.000000000000000 ) ;
#35 = COORDINATED_UNIVERSAL_TIME_OFFSET ( 5, 0, .BEHIND. ) ;
#36 = ORIENTED_EDGE ( 'NONE', *, *, #157, .F. ) ;
#37 = PERSON_AND_ORGANIZATION ( #182, #53 ) ;
#38 = CARTESIAN_POINT ( 'NONE',  ( -12.50000000000000000, -12.50000000000000000, 1.000000000000000000 ) ) ;
#39 = CC_DESIGN_DATE_AND_TIME_ASSIGNMENT ( #199, #31, ( #234 ) ) ;
#40 = CALENDAR_DATE ( 2019, 7, 1 ) ;
#41 = EDGE_LOOP ( 'NONE', ( #10, #65, #3, #236 ) ) ;
#42 = CARTESIAN_POINT ( 'NONE',  ( -12.50000000000000000, -12.50000000000000000, 1.000000000000000000 ) ) ;
#43 = CARTESIAN_POINT ( 'NONE',  ( -12.50000000000000000, 12.50000000000000000, -1.000000000000000000 ) ) ;
#44 = EDGE_CURVE ( 'NONE', #57, #79, #163, .T. ) ;
#45 = VECTOR ( 'NONE', #184, 1000.000000000000000 ) ;
#46 = AXIS2_PLACEMENT_3D ( 'NONE', #211, #96, #113 ) ;
#47 =( NAMED_UNIT ( * ) SI_UNIT ( $, .STERADIAN. ) SOLID_ANGLE_UNIT ( ) );
#48 = DATE_AND_TIME ( #81, #177 ) ;
#49 = PERSON_AND_ORGANIZATION_ROLE ( 'design_supplier' ) ;
#50 = ORIENTED_EDGE ( 'NONE', *, *, #197, .F. ) ;
#51 = VERTEX_POINT ( 'NONE', #97 ) ;
#52 = CLOSED_SHELL ( 'NONE', ( #105, #176, #143, #141, #56, #108 ) ) ;
#53 = ORGANIZATION ( 'UNSPECIFIED', 'UNSPECIFIED', '' ) ;
#54 = FACE_OUTER_BOUND ( 'NONE', #147, .T. ) ;
#55 = CC_DESIGN_DATE_AND_TIME_ASSIGNMENT ( #161, #85, ( #194 ) ) ;
#56 = ADVANCED_FACE ( 'NONE', ( #222 ), #80, .F. ) ;
#57 = VERTEX_POINT ( 'NONE', #91 ) ;
#58 = EDGE_CURVE ( 'NONE', #79, #51, #90, .T. ) ;
#59 = AXIS2_PLACEMENT_3D ( 'NONE', #207, #82, #137 ) ;
#60 = PERSON_AND_ORGANIZATION ( #182, #53 ) ;
#61 = VECTOR ( 'NONE', #66, 1000.000000000000000 ) ;
#62 = PLANE ( 'NONE',  #59 ) ;
#63 = CARTESIAN_POINT ( 'NONE',  ( 12.50000000000000000, 12.50000000000000000, -1.000000000000000000 ) ) ;
#64 = CALENDAR_DATE ( 2019, 7, 1 ) ;
#65 = ORIENTED_EDGE ( 'NONE', *, *, #44, .T. ) ;
#66 = DIRECTION ( 'NONE',  ( 1.000000000000000000, 0.0000000000000000000, 0.0000000000000000000 ) ) ;
#67 = UNCERTAINTY_MEASURE_WITH_UNIT (LENGTH_MEASURE( 1.000000000000000100E-005 ), #216, 'distance_accuracy_value', 'NONE');
#68 = COORDINATED_UNIVERSAL_TIME_OFFSET ( 5, 0, .BEHIND. ) ;
#69 = LINE ( 'NONE', #225, #198 ) ;
#70 = SECURITY_CLASSIFICATION_LEVEL ( 'unclassified' ) ;
#71 = PRODUCT_DEFINITION_FORMATION_WITH_SPECIFIED_SOURCE ( 'ANY', '', #189, .NOT_KNOWN. ) ;
#72 = VECTOR ( 'NONE', #202, 1000.000000000000000 ) ;
#73 = DATE_AND_TIME ( #220, #227 ) ;
#74 = PERSON_AND_ORGANIZATION ( #182, #53 ) ;
#75 = ORIENTED_EDGE ( 'NONE', *, *, #174, .T. ) ;
#76 = PLANE ( 'NONE',  #110 ) ;
#77 = PLANE ( 'NONE',  #6 ) ;
#78 = APPROVAL ( #215, 'UNSPECIFIED' ) ;
#79 = VERTEX_POINT ( 'NONE', #188 ) ;
#80 = PLANE ( 'NONE',  #127 ) ;
#81 = CALENDAR_DATE ( 2019, 7, 1 ) ;
#82 = DIRECTION ( 'NONE',  ( 0.0000000000000000000, 0.0000000000000000000, -1.000000000000000000 ) ) ;
#83 = CARTESIAN_POINT ( 'NONE',  ( -12.50000000000000000, -12.50000000000000000, 1.000000000000000000 ) ) ;
#84 = APPLICATION_PROTOCOL_DEFINITION ( 'international standard', 'config_control_design', 1994, #119 ) ;
#85 = DATE_TIME_ROLE ( 'creation_date' ) ;
#86 = APPLICATION_CONTEXT ( 'configuration controlled 3d designs of mechanical parts and assemblies' ) ;
#87 = FACE_OUTER_BOUND ( 'NONE', #107, .T. ) ;
#88 = ORIENTED_EDGE ( 'NONE', *, *, #193, .T. ) ;
#89 = ORIENTED_EDGE ( 'NONE', *, *, #162, .F. ) ;
#90 = LINE ( 'NONE', #38, #180 ) ;
#91 = CARTESIAN_POINT ( 'NONE',  ( 12.50000000000000000, 12.50000000000000000, 1.000000000000000000 ) ) ;
#92 = CARTESIAN_POINT ( 'NONE',  ( 12.50000000000000000, -12.50000000000000000, -1.000000000000000000 ) ) ;
#93 = DIRECTION ( 'NONE',  ( 0.0000000000000000000, 1.000000000000000000, 0.0000000000000000000 ) ) ;
#94 = CALENDAR_DATE ( 2019, 7, 1 ) ;
#95 = LINE ( 'NONE', #154, #164 ) ;
#96 = DIRECTION ( 'NONE',  ( 1.000000000000000000, 0.0000000000000000000, 0.0000000000000000000 ) ) ;
#97 = CARTESIAN_POINT ( 'NONE',  ( -12.50000000000000000, -12.50000000000000000, 1.000000000000000000 ) ) ;
#98 = PLANE ( 'NONE',  #132 ) ;
#99 = ORIENTED_EDGE ( 'NONE', *, *, #193, .F. ) ;
#100 = PERSON_AND_ORGANIZATION_ROLE ( 'creator' ) ;
#101 = CARTESIAN_POINT ( 'NONE',  ( 0.0000000000000000000, 0.0000000000000000000, 0.0000000000000000000 ) ) ;
#102 = VERTEX_POINT ( 'NONE', #63 ) ;
#103 = APPROVAL ( #232, 'UNSPECIFIED' ) ;
#104 = ORIENTED_EDGE ( 'NONE', *, *, #162, .T. ) ;
#105 = ADVANCED_FACE ( 'NONE', ( #87 ), #76, .F. ) ;
#106 = CC_DESIGN_PERSON_AND_ORGANIZATION_ASSIGNMENT ( #5, #118, ( #189 ) ) ;
#107 = EDGE_LOOP ( 'NONE', ( #75, #99, #139, #104 ) ) ;
#108 = ADVANCED_FACE ( 'NONE', ( #1 ), #62, .T. ) ;
#109 = PERSON_AND_ORGANIZATION ( #182, #53 ) ;
#110 = AXIS2_PLACEMENT_3D ( 'NONE', #133, #206, #187 ) ;
#111 = FACE_OUTER_BOUND ( 'NONE', #149, .T. ) ;
#112 = VECTOR ( 'NONE', #213, 1000.000000000000000 ) ;
#113 = DIRECTION ( 'NONE',  ( 0.0000000000000000000, 0.0000000000000000000, -1.000000000000000000 ) ) ;
#114 = CC_DESIGN_APPROVAL ( #103, ( #234 ) ) ;
#115 = VERTEX_POINT ( 'NONE', #117 ) ;
#116 = DIRECTION ( 'NONE',  ( 0.0000000000000000000, -1.000000000000000000, 0.0000000000000000000 ) ) ;
#117 = CARTESIAN_POINT ( 'NONE',  ( 12.50000000000000000, -12.50000000000000000, 1.000000000000000000 ) ) ;
#118 = PERSON_AND_ORGANIZATION_ROLE ( 'design_owner' ) ;
#119 = APPLICATION_CONTEXT ( 'configuration controlled 3d designs of mechanical parts and assemblies' ) ;
#120 = PERSON_AND_ORGANIZATION ( #182, #53 ) ;
#121 = DIRECTION ( 'NONE',  ( 0.0000000000000000000, 0.0000000000000000000, 1.000000000000000000 ) ) ;
#122 = CC_DESIGN_APPROVAL ( #78, ( #194 ) ) ;
#123 = APPLICATION_PROTOCOL_DEFINITION ( 'international standard', 'config_control_design', 1994, #86 ) ;
#124 = APPROVAL_DATE_TIME ( #48, #179 ) ;
#125 = ORIENTED_EDGE ( 'NONE', *, *, #58, .F. ) ;
#126 = APPROVAL_PERSON_ORGANIZATION ( #109, #78, #160 ) ;
#127 = AXIS2_PLACEMENT_3D ( 'NONE', #7, #166, #156 ) ;
#128 = ORIENTED_EDGE ( 'NONE', *, *, #174, .F. ) ;
#129 = CC_DESIGN_SECURITY_CLASSIFICATION ( #234, ( #71 ) ) ;
#130 = ORIENTED_EDGE ( 'NONE', *, *, #20, .F. ) ;
#131 = LOCAL_TIME ( 10, 22, 27.00000000000000000, #26 ) ;
#132 = AXIS2_PLACEMENT_3D ( 'NONE', #230, #116, #29 ) ;
#133 = CARTESIAN_POINT ( 'NONE',  ( 12.50000000000000000, -12.50000000000000000, 1.000000000000000000 ) ) ;
#134 = DESIGN_CONTEXT ( 'detailed design', #119, 'design' ) ;
#135 = APPROVAL_PERSON_ORGANIZATION ( #60, #179, #12 ) ;
#136 = VERTEX_POINT ( 'NONE', #23 ) ;
#137 = DIRECTION ( 'NONE',  ( -1.000000000000000000, 0.0000000000000000000, -0.0000000000000000000 ) ) ;
#138 = ORIENTED_EDGE ( 'NONE', *, *, #44, .F. ) ;
#139 = ORIENTED_EDGE ( 'NONE', *, *, #186, .F. ) ;
#140 = PRODUCT_RELATED_PRODUCT_CATEGORY ( 'detail', '', ( #189 ) ) ;
#141 = ADVANCED_FACE ( 'NONE', ( #111 ), #77, .F. ) ;
#142 = LINE ( 'NONE', #25, #61 ) ;
#143 = ADVANCED_FACE ( 'NONE', ( #175 ), #204, .F. ) ;
#144 = AXIS2_PLACEMENT_3D ( 'NONE', #101, #121, #212 ) ;
#145 = LINE ( 'NONE', #8, #34 ) ;
#146 = EDGE_CURVE ( 'NONE', #136, #15, #142, .T. ) ;
#147 = EDGE_LOOP ( 'NONE', ( #24, #183, #138, #88 ) ) ;
#148 = APPROVAL_PERSON_ORGANIZATION ( #30, #103, #173 ) ;
#149 = EDGE_LOOP ( 'NONE', ( #2, #89, #36, #16 ) ) ;
#150 = DIRECTION ( 'NONE',  ( -1.000000000000000000, -0.0000000000000000000, -0.0000000000000000000 ) ) ;
#151 = DIRECTION ( 'NONE',  ( -0.0000000000000000000, -0.0000000000000000000, -1.000000000000000000 ) ) ;
#152 = CC_DESIGN_APPROVAL ( #179, ( #71 ) ) ;
#153 = DIRECTION ( 'NONE',  ( -1.000000000000000000, -0.0000000000000000000, -0.0000000000000000000 ) ) ;
#154 = CARTESIAN_POINT ( 'NONE',  ( 12.50000000000000000, 12.50000000000000000, 1.000000000000000000 ) ) ;
#155 = LINE ( 'NONE', #83, #169 ) ;
#156 = DIRECTION ( 'NONE',  ( -1.000000000000000000, 0.0000000000000000000, -0.0000000000000000000 ) ) ;
#157 = EDGE_CURVE ( 'NONE', #51, #115, #155, .T. ) ;
#158 = VECTOR ( 'NONE', #11, 1000.000000000000000 ) ;
#159 =( GEOMETRIC_REPRESENTATION_CONTEXT ( 3 ) GLOBAL_UNCERTAINTY_ASSIGNED_CONTEXT ( ( #67 ) ) GLOBAL_UNIT_ASSIGNED_CONTEXT ( ( #216, #196, #47 ) ) REPRESENTATION_CONTEXT ( 'NONE', 'WORKASPACE' ) );
#160 = APPROVAL_ROLE ( '' ) ;
#161 = DATE_AND_TIME ( #64, #209 ) ;
#162 = EDGE_CURVE ( 'NONE', #115, #15, #69, .T. ) ;
#163 = LINE ( 'NONE', #4, #19 ) ;
#164 = VECTOR ( 'NONE', #167, 1000.000000000000000 ) ;
#165 = LINE ( 'NONE', #235, #112 ) ;
#166 = DIRECTION ( 'NONE',  ( 0.0000000000000000000, 0.0000000000000000000, -1.000000000000000000 ) ) ;
#167 = DIRECTION ( 'NONE',  ( -0.0000000000000000000, -0.0000000000000000000, -1.000000000000000000 ) ) ;
#168 = LOCAL_TIME ( 10, 22, 27.00000000000000000, #68 ) ;
#169 = VECTOR ( 'NONE', #208, 1000.000000000000000 ) ;
#170 = PRODUCT_DEFINITION_SHAPE ( 'NONE', 'NONE',  #194 ) ;
#171 = PERSON_AND_ORGANIZATION ( #182, #53 ) ;
#172 = PERSON_AND_ORGANIZATION_ROLE ( 'classification_officer' ) ;
#173 = APPROVAL_ROLE ( '' ) ;
#174 = EDGE_CURVE ( 'NONE', #15, #102, #210, .T. ) ;
#175 = FACE_OUTER_BOUND ( 'NONE', #203, .T. ) ;
#176 = ADVANCED_FACE ( 'NONE', ( #54 ), #98, .F. ) ;
#177 = LOCAL_TIME ( 10, 22, 27.00000000000000000, #14 ) ;
#178 = MANIFOLD_SOLID_BREP ( 'Boss-Extrude1', #52 ) ;
#179 = APPROVAL ( #13, 'UNSPECIFIED' ) ;
#180 = VECTOR ( 'NONE', #231, 1000.000000000000000 ) ;
#181 = EDGE_CURVE ( 'NONE', #79, #27, #200, .T. ) ;
#182 = PERSON ( 'UNSPECIFIED', 'UNSPECIFIED', 'UNSPECIFIED', ('UNSPECIFIED'), ('UNSPECIFIED'), ('UNSPECIFIED') ) ;
#183 = ORIENTED_EDGE ( 'NONE', *, *, #181, .F. ) ;
#184 = DIRECTION ( 'NONE',  ( -0.0000000000000000000, -0.0000000000000000000, -1.000000000000000000 ) ) ;
#185 = ORIENTED_EDGE ( 'NONE', *, *, #146, .F. ) ;
#186 = EDGE_CURVE ( 'NONE', #115, #57, #145, .T. ) ;
#187 = DIRECTION ( 'NONE',  ( 0.0000000000000000000, 0.0000000000000000000, 1.000000000000000000 ) ) ;
#188 = CARTESIAN_POINT ( 'NONE',  ( -12.50000000000000000, 12.50000000000000000, 1.000000000000000000 ) ) ;
#189 = PRODUCT ( 'Web Model 48201_36980', 'Web Model 48201_36980', '', ( #191 ) ) ;
#190 = LINE ( 'NONE', #223, #72 ) ;
#191 = MECHANICAL_CONTEXT ( 'NONE', #86, 'mechanical' ) ;
#192 = ADVANCED_BREP_SHAPE_REPRESENTATION ( 'Web Model 48201_36980', ( #178, #144 ), #159 ) ;
#193 = EDGE_CURVE ( 'NONE', #57, #102, #95, .T. ) ;
#194 = PRODUCT_DEFINITION ( 'UNKNOWN', '', #71, #134 ) ;
#195 = APPROVAL_DATE_TIME ( #73, #103 ) ;
#196 =( NAMED_UNIT ( * ) PLANE_ANGLE_UNIT ( ) SI_UNIT ( $, .RADIAN. ) );
#197 = EDGE_CURVE ( 'NONE', #102, #27, #233, .T. ) ;
#198 = VECTOR ( 'NONE', #151, 1000.000000000000000 ) ;
#199 = DATE_AND_TIME ( #40, #131 ) ;
#200 = LINE ( 'NONE', #9, #45 ) ;
#201 = ORIENTED_EDGE ( 'NONE', *, *, #237, .F. ) ;
#202 = DIRECTION ( 'NONE',  ( -0.0000000000000000000, -0.0000000000000000000, -1.000000000000000000 ) ) ;
#203 = EDGE_LOOP ( 'NONE', ( #219, #130, #125, #228 ) ) ;
#204 = PLANE ( 'NONE',  #46 ) ;
#205 = CC_DESIGN_PERSON_AND_ORGANIZATION_ASSIGNMENT ( #37, #100, ( #71 ) ) ;
#206 = DIRECTION ( 'NONE',  ( -1.000000000000000000, 0.0000000000000000000, 0.0000000000000000000 ) ) ;
#207 = CARTESIAN_POINT ( 'NONE',  ( 0.0000000000000000000, 0.0000000000000000000, -1.000000000000000000 ) ) ;
#208 = DIRECTION ( 'NONE',  ( 1.000000000000000000, 0.0000000000000000000, 0.0000000000000000000 ) ) ;
#209 = LOCAL_TIME ( 10, 22, 27.00000000000000000, #35 ) ;
#210 = LINE ( 'NONE', #226, #158 ) ;
#211 = CARTESIAN_POINT ( 'NONE',  ( -12.50000000000000000, -12.50000000000000000, 1.000000000000000000 ) ) ;
#212 = DIRECTION ( 'NONE',  ( 1.000000000000000000, 0.0000000000000000000, 0.0000000000000000000 ) ) ;
#213 = DIRECTION ( 'NONE',  ( -0.0000000000000000000, -1.000000000000000000, -0.0000000000000000000 ) ) ;
#214 = COORDINATED_UNIVERSAL_TIME_OFFSET ( 5, 0, .BEHIND. ) ;
#215 = APPROVAL_STATUS ( 'not_yet_approved' ) ;
#216 =( LENGTH_UNIT ( ) NAMED_UNIT ( * ) SI_UNIT ( .MILLI., .METRE. ) );
#217 = PERSON_AND_ORGANIZATION_ROLE ( 'creator' ) ;
#218 = SHAPE_DEFINITION_REPRESENTATION ( #170, #192 ) ;
#219 = ORIENTED_EDGE ( 'NONE', *, *, #237, .T. ) ;
#220 = CALENDAR_DATE ( 2019, 7, 1 ) ;
#221 = CC_DESIGN_PERSON_AND_ORGANIZATION_ASSIGNMENT ( #74, #49, ( #71 ) ) ;
#222 = FACE_OUTER_BOUND ( 'NONE', #41, .T. ) ;
#223 = CARTESIAN_POINT ( 'NONE',  ( -12.50000000000000000, -12.50000000000000000, 1.000000000000000000 ) ) ;
#224 = APPROVAL_DATE_TIME ( #22, #78 ) ;
#225 = CARTESIAN_POINT ( 'NONE',  ( 12.50000000000000000, -12.50000000000000000, 1.000000000000000000 ) ) ;
#226 = CARTESIAN_POINT ( 'NONE',  ( 12.50000000000000000, -12.50000000000000000, -1.000000000000000000 ) ) ;
#227 = LOCAL_TIME ( 10, 22, 27.00000000000000000, #214 ) ;
#228 = ORIENTED_EDGE ( 'NONE', *, *, #181, .T. ) ;
#229 = DIRECTION ( 'NONE',  ( 0.0000000000000000000, 1.000000000000000000, 0.0000000000000000000 ) ) ;
#230 = CARTESIAN_POINT ( 'NONE',  ( -12.50000000000000000, 12.50000000000000000, 1.000000000000000000 ) ) ;
#231 = DIRECTION ( 'NONE',  ( -0.0000000000000000000, -1.000000000000000000, -0.0000000000000000000 ) ) ;
#232 = APPROVAL_STATUS ( 'not_yet_approved' ) ;
#233 = LINE ( 'NONE', #43, #33 ) ;
#234 = SECURITY_CLASSIFICATION ( '', '', #70 ) ;
#235 = CARTESIAN_POINT ( 'NONE',  ( -12.50000000000000000, -12.50000000000000000, -1.000000000000000000 ) ) ;
#236 = ORIENTED_EDGE ( 'NONE', *, *, #157, .T. ) ;
#237 = EDGE_CURVE ( 'NONE', #27, #136, #165, .T. ) ;
ENDSEC;
END-ISO-10303-21;
