ISO-10303-21;
HEADER;
FILE_DESCRIPTION (( 'STEP AP203' ),
    '1' );
FILE_NAME ('Web Model 62882.STEP',
    '2017-01-31T18:25:59',
    ( '' ),
    ( '' ),
    'SwSTEP 2.0',
    'SolidWorks 2016',
    '' );
FILE_SCHEMA (( 'CONFIG_CONTROL_DESIGN' ));
ENDSEC;

DATA;
#1 = EDGE_LOOP ( 'NONE', ( #179, #157, #236, #193 ) ) ;
#2 = EDGE_LOOP ( 'NONE', ( #90, #118, #210, #68 ) ) ;
#3 = CC_DESIGN_PERSON_AND_ORGANIZATION_ASSIGNMENT ( #42, #93, ( #128 ) ) ;
#4 = CARTESIAN_POINT ( 'NONE',  ( -37.50000000000000000, -25.00000000000000000, -3.000000000000000000 ) ) ;
#5 = DIRECTION ( 'NONE',  ( 0.0000000000000000000, 0.0000000000000000000, 1.000000000000000000 ) ) ;
#6 = CC_DESIGN_APPROVAL ( #211, ( #187 ) ) ;
#7 = CARTESIAN_POINT ( 'NONE',  ( -37.50000000000000000, -25.00000000000000000, 0.0000000000000000000 ) ) ;
#8 = MECHANICAL_CONTEXT ( 'NONE', #97, 'mechanical' ) ;
#9 = COORDINATED_UNIVERSAL_TIME_OFFSET ( 5, 0, .BEHIND. ) ;
#10 = EDGE_CURVE ( 'NONE', #121, #52, #172, .T. ) ;
#11 = DIRECTION ( 'NONE',  ( 0.0000000000000000000, -1.000000000000000000, 0.0000000000000000000 ) ) ;
#12 = CARTESIAN_POINT ( 'NONE',  ( -37.50000000000000000, 25.00000000000000000, 0.0000000000000000000 ) ) ;
#13 = APPROVAL_ROLE ( '' ) ;
#14 = LINE ( 'NONE', #29, #48 ) ;
#15 = ORIENTED_EDGE ( 'NONE', *, *, #152, .F. ) ;
#16 = SECURITY_CLASSIFICATION_LEVEL ( 'unclassified' ) ;
#17 = AXIS2_PLACEMENT_3D ( 'NONE', #56, #221, #141 ) ;
#18 = UNCERTAINTY_MEASURE_WITH_UNIT (LENGTH_MEASURE( 1.000000000000000100E-005 ), #61, 'distance_accuracy_value', 'NONE');
#19 = FACE_OUTER_BOUND ( 'NONE', #169, .T. ) ;
#20 = AXIS2_PLACEMENT_3D ( 'NONE', #82, #47, #110 ) ;
#21 = VECTOR ( 'NONE', #94, 1000.000000000000000 ) ;
#22 = ORIENTED_EDGE ( 'NONE', *, *, #152, .T. ) ;
#23 = PERSON_AND_ORGANIZATION ( #186, #174 ) ;
#24 = CARTESIAN_POINT ( 'NONE',  ( 37.50000000000000000, -25.00000000000000000, -3.000000000000000000 ) ) ;
#25 = EDGE_CURVE ( 'NONE', #33, #121, #227, .T. ) ;
#26 = DATE_AND_TIME ( #140, #192 ) ;
#27 = CARTESIAN_POINT ( 'NONE',  ( 37.50000000000000000, -25.00000000000000000, 0.0000000000000000000 ) ) ;
#28 = CC_DESIGN_PERSON_AND_ORGANIZATION_ASSIGNMENT ( #220, #66, ( #123 ) ) ;
#29 = CARTESIAN_POINT ( 'NONE',  ( -37.50000000000000000, 25.00000000000000000, -3.000000000000000000 ) ) ;
#30 = DATE_AND_TIME ( #75, #137 ) ;
#31 = VERTEX_POINT ( 'NONE', #225 ) ;
#32 = EDGE_CURVE ( 'NONE', #31, #84, #148, .T. ) ;
#33 = VERTEX_POINT ( 'NONE', #224 ) ;
#34 = EDGE_CURVE ( 'NONE', #52, #44, #92, .T. ) ;
#35 = APPROVAL_ROLE ( '' ) ;
#36 = LINE ( 'NONE', #12, #21 ) ;
#37 = ORIENTED_EDGE ( 'NONE', *, *, #155, .T. ) ;
#38 = EDGE_CURVE ( 'NONE', #44, #84, #233, .T. ) ;
#39 = CLOSED_SHELL ( 'NONE', ( #101, #69, #88, #173, #195, #217 ) ) ;
#40 = CARTESIAN_POINT ( 'NONE',  ( -37.50000000000000000, -25.00000000000000000, -3.000000000000000000 ) ) ;
#41 = CARTESIAN_POINT ( 'NONE',  ( -37.50000000000000000, 25.00000000000000000, -3.000000000000000000 ) ) ;
#42 = PERSON_AND_ORGANIZATION ( #186, #174 ) ;
#43 = EDGE_CURVE ( 'NONE', #171, #44, #165, .T. ) ;
#44 = VERTEX_POINT ( 'NONE', #7 ) ;
#45 = PLANE ( 'NONE',  #65 ) ;
#46 = APPROVAL_STATUS ( 'not_yet_approved' ) ;
#47 = DIRECTION ( 'NONE',  ( -1.000000000000000000, 0.0000000000000000000, 0.0000000000000000000 ) ) ;
#48 = VECTOR ( 'NONE', #231, 1000.000000000000000 ) ;
#49 = VECTOR ( 'NONE', #180, 1000.000000000000000 ) ;
#50 = CARTESIAN_POINT ( 'NONE',  ( 37.50000000000000000, 25.00000000000000000, -3.000000000000000000 ) ) ;
#51 = FACE_OUTER_BOUND ( 'NONE', #115, .T. ) ;
#52 = VERTEX_POINT ( 'NONE', #4 ) ;
#53 = CC_DESIGN_DATE_AND_TIME_ASSIGNMENT ( #150, #85, ( #123 ) ) ;
#54 = FACE_OUTER_BOUND ( 'NONE', #55, .T. ) ;
#55 = EDGE_LOOP ( 'NONE', ( #213, #200, #132, #37 ) ) ;
#56 = CARTESIAN_POINT ( 'NONE',  ( -37.50000000000000000, 25.00000000000000000, -3.000000000000000000 ) ) ;
#57 = CC_DESIGN_SECURITY_CLASSIFICATION ( #123, ( #187 ) ) ;
#58 = APPROVAL_ROLE ( '' ) ;
#59 = DATE_AND_TIME ( #164, #232 ) ;
#60 = APPLICATION_PROTOCOL_DEFINITION ( 'international standard', 'config_control_design', 1994, #97 ) ;
#61 =( LENGTH_UNIT ( ) NAMED_UNIT ( * ) SI_UNIT ( .MILLI., .METRE. ) );
#62 = APPROVAL_DATE_TIME ( #113, #149 ) ;
#63 = VECTOR ( 'NONE', #79, 1000.000000000000000 ) ;
#64 = ORIENTED_EDGE ( 'NONE', *, *, #155, .F. ) ;
#65 = AXIS2_PLACEMENT_3D ( 'NONE', #143, #129, #131 ) ;
#66 = PERSON_AND_ORGANIZATION_ROLE ( 'classification_officer' ) ;
#67 = LOCAL_TIME ( 13, 25, 59.00000000000000000, #212 ) ;
#68 = ORIENTED_EDGE ( 'NONE', *, *, #98, .F. ) ;
#69 = ADVANCED_FACE ( 'NONE', ( #120 ), #77, .T. ) ;
#70 = CALENDAR_DATE ( 2017, 31, 1 ) ;
#71 = LINE ( 'NONE', #50, #63 ) ;
#72 = ORIENTED_EDGE ( 'NONE', *, *, #25, .T. ) ;
#73 = ADVANCED_BREP_SHAPE_REPRESENTATION ( 'Web Model 62882', ( #208, #194 ), #116 ) ;
#74 = APPROVAL_PERSON_ORGANIZATION ( #163, #149, #13 ) ;
#75 = CALENDAR_DATE ( 2017, 31, 1 ) ;
#76 = CARTESIAN_POINT ( 'NONE',  ( 37.50000000000000000, 25.00000000000000000, -3.000000000000000000 ) ) ;
#77 = PLANE ( 'NONE',  #17 ) ;
#78 = DIRECTION ( 'NONE',  ( 0.0000000000000000000, 0.0000000000000000000, 1.000000000000000000 ) ) ;
#79 = DIRECTION ( 'NONE',  ( 0.0000000000000000000, 0.0000000000000000000, 1.000000000000000000 ) ) ;
#80 = DIRECTION ( 'NONE',  ( -0.0000000000000000000, 0.0000000000000000000, -1.000000000000000000 ) ) ;
#81 = EDGE_CURVE ( 'NONE', #31, #33, #188, .T. ) ;
#82 = CARTESIAN_POINT ( 'NONE',  ( -37.50000000000000000, 25.00000000000000000, -3.000000000000000000 ) ) ;
#83 = CARTESIAN_POINT ( 'NONE',  ( -37.50000000000000000, -25.00000000000000000, -3.000000000000000000 ) ) ;
#84 = VERTEX_POINT ( 'NONE', #27 ) ;
#85 = DATE_TIME_ROLE ( 'classification_date' ) ;
#86 = APPROVAL_PERSON_ORGANIZATION ( #23, #136, #58 ) ;
#87 = VECTOR ( 'NONE', #176, 1000.000000000000000 ) ;
#88 = ADVANCED_FACE ( 'NONE', ( #102 ), #207, .T. ) ;
#89 = LINE ( 'NONE', #228, #130 ) ;
#90 = ORIENTED_EDGE ( 'NONE', *, *, #10, .F. ) ;
#91 = CARTESIAN_POINT ( 'NONE',  ( -37.50000000000000000, -25.00000000000000000, 0.0000000000000000000 ) ) ;
#92 = LINE ( 'NONE', #40, #122 ) ;
#93 = PERSON_AND_ORGANIZATION_ROLE ( 'design_owner' ) ;
#94 = DIRECTION ( 'NONE',  ( -1.000000000000000000, -0.0000000000000000000, -0.0000000000000000000 ) ) ;
#95 = COORDINATED_UNIVERSAL_TIME_OFFSET ( 5, 0, .BEHIND. ) ;
#96 = DIRECTION ( 'NONE',  ( -0.0000000000000000000, 1.000000000000000000, -0.0000000000000000000 ) ) ;
#97 = APPLICATION_CONTEXT ( 'configuration controlled 3d designs of mechanical parts and assemblies' ) ;
#98 = EDGE_CURVE ( 'NONE', #52, #31, #105, .T. ) ;
#99 = ORIENTED_EDGE ( 'NONE', *, *, #10, .T. ) ;
#100 = COORDINATED_UNIVERSAL_TIME_OFFSET ( 5, 0, .BEHIND. ) ;
#101 = ADVANCED_FACE ( 'NONE', ( #51 ), #206, .T. ) ;
#102 = FACE_OUTER_BOUND ( 'NONE', #1, .T. ) ;
#103 = CARTESIAN_POINT ( 'NONE',  ( -37.50000000000000000, 25.00000000000000000, -3.000000000000000000 ) ) ;
#104 = DIRECTION ( 'NONE',  ( -0.0000000000000000000, 1.000000000000000000, -0.0000000000000000000 ) ) ;
#105 = LINE ( 'NONE', #83, #156 ) ;
#106 = CC_DESIGN_PERSON_AND_ORGANIZATION_ASSIGNMENT ( #199, #181, ( #219 ) ) ;
#107 = DIRECTION ( 'NONE',  ( 0.0000000000000000000, 0.0000000000000000000, 1.000000000000000000 ) ) ;
#108 = APPLICATION_CONTEXT ( 'configuration controlled 3d designs of mechanical parts and assemblies' ) ;
#109 = ORIENTED_EDGE ( 'NONE', *, *, #34, .F. ) ;
#110 = DIRECTION ( 'NONE',  ( 0.0000000000000000000, 0.0000000000000000000, 1.000000000000000000 ) ) ;
#111 = CARTESIAN_POINT ( 'NONE',  ( 37.50000000000000000, 25.00000000000000000, -3.000000000000000000 ) ) ;
#112 = DIRECTION ( 'NONE',  ( -0.0000000000000000000, 0.0000000000000000000, 1.000000000000000000 ) ) ;
#113 = DATE_AND_TIME ( #70, #204 ) ;
#114 = APPROVAL_PERSON_ORGANIZATION ( #215, #211, #35 ) ;
#115 = EDGE_LOOP ( 'NONE', ( #218, #15, #99, #125 ) ) ;
#116 =( GEOMETRIC_REPRESENTATION_CONTEXT ( 3 ) GLOBAL_UNCERTAINTY_ASSIGNED_CONTEXT ( ( #18 ) ) GLOBAL_UNIT_ASSIGNED_CONTEXT ( ( #61, #234, #184 ) ) REPRESENTATION_CONTEXT ( 'NONE', 'WORKASPACE' ) );
#117 = PERSON_AND_ORGANIZATION ( #186, #174 ) ;
#118 = ORIENTED_EDGE ( 'NONE', *, *, #25, .F. ) ;
#119 = COORDINATED_UNIVERSAL_TIME_OFFSET ( 5, 0, .BEHIND. ) ;
#120 = FACE_OUTER_BOUND ( 'NONE', #151, .T. ) ;
#121 = VERTEX_POINT ( 'NONE', #166 ) ;
#122 = VECTOR ( 'NONE', #5, 1000.000000000000000 ) ;
#123 = SECURITY_CLASSIFICATION ( '', '', #16 ) ;
#124 = DIRECTION ( 'NONE',  ( 1.000000000000000000, 0.0000000000000000000, 0.0000000000000000000 ) ) ;
#125 = ORIENTED_EDGE ( 'NONE', *, *, #34, .T. ) ;
#126 = DIRECTION ( 'NONE',  ( 1.000000000000000000, 0.0000000000000000000, 0.0000000000000000000 ) ) ;
#127 = EDGE_CURVE ( 'NONE', #33, #175, #71, .T. ) ;
#128 = PRODUCT ( 'Web Model 62882', 'Web Model 62882', '', ( #8 ) ) ;
#129 = DIRECTION ( 'NONE',  ( -0.0000000000000000000, 0.0000000000000000000, 1.000000000000000000 ) ) ;
#130 = VECTOR ( 'NONE', #96, 1000.000000000000000 ) ;
#131 = DIRECTION ( 'NONE',  ( 1.000000000000000000, 0.0000000000000000000, 0.0000000000000000000 ) ) ;
#132 = ORIENTED_EDGE ( 'NONE', *, *, #178, .T. ) ;
#133 = PLANE ( 'NONE',  #139 ) ;
#134 = ORIENTED_EDGE ( 'NONE', *, *, #38, .F. ) ;
#135 = PERSON_AND_ORGANIZATION_ROLE ( 'design_supplier' ) ;
#136 = APPROVAL ( #46, 'UNSPECIFIED' ) ;
#137 = LOCAL_TIME ( 13, 25, 59.00000000000000000, #100 ) ;
#138 = ORIENTED_EDGE ( 'NONE', *, *, #32, .T. ) ;
#139 = AXIS2_PLACEMENT_3D ( 'NONE', #182, #112, #161 ) ;
#140 = CALENDAR_DATE ( 2017, 31, 1 ) ;
#141 = DIRECTION ( 'NONE',  ( 0.0000000000000000000, -0.0000000000000000000, 1.000000000000000000 ) ) ;
#142 = VECTOR ( 'NONE', #201, 1000.000000000000000 ) ;
#143 = CARTESIAN_POINT ( 'NONE',  ( -37.50000000000000000, -25.00000000000000000, 0.0000000000000000000 ) ) ;
#144 = DIRECTION ( 'NONE',  ( 1.000000000000000000, 0.0000000000000000000, 0.0000000000000000000 ) ) ;
#145 = CARTESIAN_POINT ( 'NONE',  ( -37.50000000000000000, 25.00000000000000000, 0.0000000000000000000 ) ) ;
#146 = CC_DESIGN_APPROVAL ( #149, ( #123 ) ) ;
#147 = PLANE ( 'NONE',  #190 ) ;
#148 = LINE ( 'NONE', #24, #223 ) ;
#149 = APPROVAL ( #167, 'UNSPECIFIED' ) ;
#150 = DATE_AND_TIME ( #154, #67 ) ;
#151 = EDGE_LOOP ( 'NONE', ( #64, #216, #72, #22 ) ) ;
#152 = EDGE_CURVE ( 'NONE', #121, #171, #14, .T. ) ;
#153 = CARTESIAN_POINT ( 'NONE',  ( -37.50000000000000000, 25.00000000000000000, 0.0000000000000000000 ) ) ;
#154 = CALENDAR_DATE ( 2017, 31, 1 ) ;
#155 = EDGE_CURVE ( 'NONE', #175, #171, #36, .T. ) ;
#156 = VECTOR ( 'NONE', #144, 1000.000000000000000 ) ;
#157 = ORIENTED_EDGE ( 'NONE', *, *, #32, .F. ) ;
#158 = ORIENTED_EDGE ( 'NONE', *, *, #98, .T. ) ;
#159 = APPLICATION_PROTOCOL_DEFINITION ( 'international standard', 'config_control_design', 1994, #108 ) ;
#160 = APPROVAL_STATUS ( 'not_yet_approved' ) ;
#161 = DIRECTION ( 'NONE',  ( 1.000000000000000000, 0.0000000000000000000, 0.0000000000000000000 ) ) ;
#162 = DIRECTION ( 'NONE',  ( 1.000000000000000000, 0.0000000000000000000, -0.0000000000000000000 ) ) ;
#163 = PERSON_AND_ORGANIZATION ( #186, #174 ) ;
#164 = CALENDAR_DATE ( 2017, 31, 1 ) ;
#165 = LINE ( 'NONE', #153, #49 ) ;
#166 = CARTESIAN_POINT ( 'NONE',  ( -37.50000000000000000, 25.00000000000000000, -3.000000000000000000 ) ) ;
#167 = APPROVAL_STATUS ( 'not_yet_approved' ) ;
#168 = AXIS2_PLACEMENT_3D ( 'NONE', #111, #162, #80 ) ;
#169 = EDGE_LOOP ( 'NONE', ( #134, #109, #158, #138 ) ) ;
#170 = PERSON_AND_ORGANIZATION ( #186, #174 ) ;
#171 = VERTEX_POINT ( 'NONE', #145 ) ;
#172 = LINE ( 'NONE', #41, #87 ) ;
#173 = ADVANCED_FACE ( 'NONE', ( #19 ), #147, .T. ) ;
#174 = ORGANIZATION ( 'UNSPECIFIED', 'UNSPECIFIED', '' ) ;
#175 = VERTEX_POINT ( 'NONE', #230 ) ;
#176 = DIRECTION ( 'NONE',  ( 0.0000000000000000000, -1.000000000000000000, 0.0000000000000000000 ) ) ;
#177 = PRODUCT_DEFINITION_SHAPE ( 'NONE', 'NONE',  #219 ) ;
#178 = EDGE_CURVE ( 'NONE', #84, #175, #89, .T. ) ;
#179 = ORIENTED_EDGE ( 'NONE', *, *, #178, .F. ) ;
#180 = DIRECTION ( 'NONE',  ( 0.0000000000000000000, -1.000000000000000000, 0.0000000000000000000 ) ) ;
#181 = PERSON_AND_ORGANIZATION_ROLE ( 'creator' ) ;
#182 = CARTESIAN_POINT ( 'NONE',  ( -37.50000000000000000, -25.00000000000000000, -3.000000000000000000 ) ) ;
#183 = VECTOR ( 'NONE', #104, 1000.000000000000000 ) ;
#184 =( NAMED_UNIT ( * ) SI_UNIT ( $, .STERADIAN. ) SOLID_ANGLE_UNIT ( ) );
#185 = CARTESIAN_POINT ( 'NONE',  ( -37.50000000000000000, -25.00000000000000000, -3.000000000000000000 ) ) ;
#186 = PERSON ( 'UNSPECIFIED', 'UNSPECIFIED', 'UNSPECIFIED', ('UNSPECIFIED'), ('UNSPECIFIED'), ('UNSPECIFIED') ) ;
#187 = PRODUCT_DEFINITION_FORMATION_WITH_SPECIFIED_SOURCE ( 'ANY', '', #128, .NOT_KNOWN. ) ;
#188 = LINE ( 'NONE', #76, #183 ) ;
#189 = VECTOR ( 'NONE', #124, 1000.000000000000000 ) ;
#190 = AXIS2_PLACEMENT_3D ( 'NONE', #185, #11, #202 ) ;
#191 = PERSON_AND_ORGANIZATION_ROLE ( 'creator' ) ;
#192 = LOCAL_TIME ( 13, 25, 59.00000000000000000, #9 ) ;
#193 = ORIENTED_EDGE ( 'NONE', *, *, #127, .T. ) ;
#194 = AXIS2_PLACEMENT_3D ( 'NONE', #203, #78, #126 ) ;
#195 = ADVANCED_FACE ( 'NONE', ( #205 ), #133, .F. ) ;
#196 = APPROVAL_DATE_TIME ( #59, #136 ) ;
#197 = DESIGN_CONTEXT ( 'detailed design', #108, 'design' ) ;
#198 = CC_DESIGN_APPROVAL ( #136, ( #219 ) ) ;
#199 = PERSON_AND_ORGANIZATION ( #186, #174 ) ;
#200 = ORIENTED_EDGE ( 'NONE', *, *, #38, .T. ) ;
#201 = DIRECTION ( 'NONE',  ( -1.000000000000000000, -0.0000000000000000000, -0.0000000000000000000 ) ) ;
#202 = DIRECTION ( 'NONE',  ( 0.0000000000000000000, -0.0000000000000000000, -1.000000000000000000 ) ) ;
#203 = CARTESIAN_POINT ( 'NONE',  ( 0.0000000000000000000, 0.0000000000000000000, 0.0000000000000000000 ) ) ;
#204 = LOCAL_TIME ( 13, 25, 59.00000000000000000, #119 ) ;
#205 = FACE_OUTER_BOUND ( 'NONE', #2, .T. ) ;
#206 = PLANE ( 'NONE',  #20 ) ;
#207 = PLANE ( 'NONE',  #168 ) ;
#208 = MANIFOLD_SOLID_BREP ( 'Extrude1', #39 ) ;
#209 = APPROVAL_DATE_TIME ( #26, #211 ) ;
#210 = ORIENTED_EDGE ( 'NONE', *, *, #81, .F. ) ;
#211 = APPROVAL ( #160, 'UNSPECIFIED' ) ;
#212 = COORDINATED_UNIVERSAL_TIME_OFFSET ( 5, 0, .BEHIND. ) ;
#213 = ORIENTED_EDGE ( 'NONE', *, *, #43, .T. ) ;
#214 = CC_DESIGN_DATE_AND_TIME_ASSIGNMENT ( #30, #229, ( #219 ) ) ;
#215 = PERSON_AND_ORGANIZATION ( #186, #174 ) ;
#216 = ORIENTED_EDGE ( 'NONE', *, *, #127, .F. ) ;
#217 = ADVANCED_FACE ( 'NONE', ( #54 ), #45, .T. ) ;
#218 = ORIENTED_EDGE ( 'NONE', *, *, #43, .F. ) ;
#219 = PRODUCT_DEFINITION ( 'UNKNOWN', '', #187, #197 ) ;
#220 = PERSON_AND_ORGANIZATION ( #186, #174 ) ;
#221 = DIRECTION ( 'NONE',  ( 0.0000000000000000000, 1.000000000000000000, 0.0000000000000000000 ) ) ;
#222 = SHAPE_DEFINITION_REPRESENTATION ( #177, #73 ) ;
#223 = VECTOR ( 'NONE', #107, 1000.000000000000000 ) ;
#224 = CARTESIAN_POINT ( 'NONE',  ( 37.50000000000000000, 25.00000000000000000, -3.000000000000000000 ) ) ;
#225 = CARTESIAN_POINT ( 'NONE',  ( 37.50000000000000000, -25.00000000000000000, -3.000000000000000000 ) ) ;
#226 = CC_DESIGN_PERSON_AND_ORGANIZATION_ASSIGNMENT ( #117, #191, ( #187 ) ) ;
#227 = LINE ( 'NONE', #103, #142 ) ;
#228 = CARTESIAN_POINT ( 'NONE',  ( 37.50000000000000000, 25.00000000000000000, 0.0000000000000000000 ) ) ;
#229 = DATE_TIME_ROLE ( 'creation_date' ) ;
#230 = CARTESIAN_POINT ( 'NONE',  ( 37.50000000000000000, 25.00000000000000000, 0.0000000000000000000 ) ) ;
#231 = DIRECTION ( 'NONE',  ( 0.0000000000000000000, 0.0000000000000000000, 1.000000000000000000 ) ) ;
#232 = LOCAL_TIME ( 13, 25, 59.00000000000000000, #95 ) ;
#233 = LINE ( 'NONE', #91, #189 ) ;
#234 =( NAMED_UNIT ( * ) PLANE_ANGLE_UNIT ( ) SI_UNIT ( $, .RADIAN. ) );
#235 = PRODUCT_RELATED_PRODUCT_CATEGORY ( 'detail', '', ( #128 ) ) ;
#236 = ORIENTED_EDGE ( 'NONE', *, *, #81, .T. ) ;
#237 = CC_DESIGN_PERSON_AND_ORGANIZATION_ASSIGNMENT ( #170, #135, ( #187 ) ) ;
ENDSEC;
END-ISO-10303-21;
