ISO-10303-21;
HEADER;
FILE_DESCRIPTION (( 'STEP AP203' ),
    '1' );
FILE_NAME ('Web Model 43369_43369.step',
    '2020-10-21T18:24:40',
    ( '' ),
    ( '' ),
    'SwSTEP 2.0',
    'SolidWorks 2018',
    '' );
FILE_SCHEMA (( 'CONFIG_CONTROL_DESIGN' ));
ENDSEC;

DATA;
#1 = APPROVAL_PERSON_ORGANIZATION ( #33, #165, #16 ) ;
#2 = AXIS2_PLACEMENT_3D ( 'NONE', #32, #112, #113 ) ;
#3 = ADVANCED_FACE ( 'NONE', ( #21 ), #154, .T. ) ;
#4 = APPROVAL_DATE_TIME ( #72, #158 ) ;
#5 = ADVANCED_FACE ( 'NONE', ( #122 ), #84, .F. ) ;
#6 = CC_DESIGN_APPROVAL ( #158, ( #47 ) ) ;
#7 = ORIENTED_EDGE ( 'NONE', *, *, #93, .T. ) ;
#8 = COORDINATED_UNIVERSAL_TIME_OFFSET ( 5, 0, .BEHIND. ) ;
#9 = PRODUCT_RELATED_PRODUCT_CATEGORY ( 'detail', '', ( #164 ) ) ;
#10 = CIRCLE ( 'NONE', #148, 12.50000000000000000 ) ;
#11 = PRODUCT_DEFINITION ( 'UNKNOWN', '', #90, #144 ) ;
#12 = CARTESIAN_POINT ( 'NONE',  ( 0.0000000000000000000, 0.0000000000000000000, 0.0000000000000000000 ) ) ;
#13 = CARTESIAN_POINT ( 'NONE',  ( 0.0000000000000000000, 0.0000000000000000000, 0.0000000000000000000 ) ) ;
#14 = APPLICATION_PROTOCOL_DEFINITION ( 'international standard', 'config_control_design', 1994, #172 ) ;
#15 = PERSON_AND_ORGANIZATION ( #131, #68 ) ;
#16 = APPROVAL_ROLE ( '' ) ;
#17 = EDGE_LOOP ( 'NONE', ( #67, #91 ) ) ;
#18 = CYLINDRICAL_SURFACE ( 'NONE', #73, 12.50000000000000000 ) ;
#19 = SHAPE_DEFINITION_REPRESENTATION ( #66, #27 ) ;
#20 = APPROVAL_ROLE ( '' ) ;
#21 = FACE_OUTER_BOUND ( 'NONE', #110, .T. ) ;
#22 = PERSON_AND_ORGANIZATION ( #131, #68 ) ;
#23 = LOCAL_TIME ( 14, 24, 40.00000000000000000, #54 ) ;
#24 = LOCAL_TIME ( 14, 24, 40.00000000000000000, #133 ) ;
#25 = DIRECTION ( 'NONE',  ( -0.0000000000000000000, -0.0000000000000000000, -1.000000000000000000 ) ) ;
#26 = CARTESIAN_POINT ( 'NONE',  ( -12.50000000000000000, 0.0000000000000000000, 2.299999999999999822 ) ) ;
#27 = ADVANCED_BREP_SHAPE_REPRESENTATION ( 'Web Model 43369_43369', ( #29, #42 ), #55 ) ;
#28 = APPROVAL ( #163, 'UNSPECIFIED' ) ;
#29 = MANIFOLD_SOLID_BREP ( 'Boss-Extrude1', #159 ) ;
#30 = PERSON_AND_ORGANIZATION ( #131, #68 ) ;
#31 = PLANE ( 'NONE',  #2 ) ;
#32 = CARTESIAN_POINT ( 'NONE',  ( 0.0000000000000000000, 0.0000000000000000000, 2.299999999999999822 ) ) ;
#33 = PERSON_AND_ORGANIZATION ( #131, #68 ) ;
#34 = CALENDAR_DATE ( 2020, 21, 10 ) ;
#35 = CARTESIAN_POINT ( 'NONE',  ( 0.0000000000000000000, 0.0000000000000000000, 0.0000000000000000000 ) ) ;
#36 = CC_DESIGN_DATE_AND_TIME_ASSIGNMENT ( #82, #92, ( #11 ) ) ;
#37 = DIRECTION ( 'NONE',  ( 1.000000000000000000, 0.0000000000000000000, 0.0000000000000000000 ) ) ;
#38 = CARTESIAN_POINT ( 'NONE',  ( -12.50000000000000000, 0.0000000000000000000, 0.0000000000000000000 ) ) ;
#39 = CC_DESIGN_APPROVAL ( #28, ( #90 ) ) ;
#40 = ORIENTED_EDGE ( 'NONE', *, *, #81, .T. ) ;
#41 = CALENDAR_DATE ( 2020, 21, 10 ) ;
#42 = AXIS2_PLACEMENT_3D ( 'NONE', #13, #53, #52 ) ;
#43 = LINE ( 'NONE', #26, #83 ) ;
#44 = APPROVAL_PERSON_ORGANIZATION ( #30, #158, #20 ) ;
#45 = ADVANCED_FACE ( 'NONE', ( #146 ), #31, .T. ) ;
#46 = DIRECTION ( 'NONE',  ( 0.0000000000000000000, 0.0000000000000000000, 1.000000000000000000 ) ) ;
#47 = SECURITY_CLASSIFICATION ( '', '', #80 ) ;
#48 = EDGE_CURVE ( 'NONE', #141, #51, #70, .T. ) ;
#49 = DIRECTION ( 'NONE',  ( -0.0000000000000000000, -0.0000000000000000000, -1.000000000000000000 ) ) ;
#50 = CARTESIAN_POINT ( 'NONE',  ( 0.0000000000000000000, 0.0000000000000000000, 2.299999999999999822 ) ) ;
#51 = VERTEX_POINT ( 'NONE', #143 ) ;
#52 = DIRECTION ( 'NONE',  ( 1.000000000000000000, 0.0000000000000000000, 0.0000000000000000000 ) ) ;
#53 = DIRECTION ( 'NONE',  ( 0.0000000000000000000, 0.0000000000000000000, 1.000000000000000000 ) ) ;
#54 = COORDINATED_UNIVERSAL_TIME_OFFSET ( 5, 0, .BEHIND. ) ;
#55 =( GEOMETRIC_REPRESENTATION_CONTEXT ( 3 ) GLOBAL_UNCERTAINTY_ASSIGNED_CONTEXT ( ( #142 ) ) GLOBAL_UNIT_ASSIGNED_CONTEXT ( ( #160, #89, #102 ) ) REPRESENTATION_CONTEXT ( 'NONE', 'WORKASPACE' ) );
#56 = DATE_AND_TIME ( #104, #57 ) ;
#57 = LOCAL_TIME ( 14, 24, 40.00000000000000000, #60 ) ;
#58 = EDGE_CURVE ( 'NONE', #141, #174, #43, .T. ) ;
#59 = ADVANCED_FACE ( 'NONE', ( #126 ), #18, .T. ) ;
#60 = COORDINATED_UNIVERSAL_TIME_OFFSET ( 5, 0, .BEHIND. ) ;
#61 = DIRECTION ( 'NONE',  ( -1.000000000000000000, 0.0000000000000000000, 0.0000000000000000000 ) ) ;
#62 = DIRECTION ( 'NONE',  ( 0.0000000000000000000, 0.0000000000000000000, 1.000000000000000000 ) ) ;
#63 = DIRECTION ( 'NONE',  ( 0.0000000000000000000, 0.0000000000000000000, 1.000000000000000000 ) ) ;
#64 = APPLICATION_PROTOCOL_DEFINITION ( 'international standard', 'config_control_design', 1994, #150 ) ;
#65 = PERSON_AND_ORGANIZATION_ROLE ( 'design_owner' ) ;
#66 = PRODUCT_DEFINITION_SHAPE ( 'NONE', 'NONE',  #11 ) ;
#67 = ORIENTED_EDGE ( 'NONE', *, *, #98, .F. ) ;
#68 = ORGANIZATION ( 'UNSPECIFIED', 'UNSPECIFIED', '' ) ;
#69 = CIRCLE ( 'NONE', #94, 12.50000000000000000 ) ;
#70 = CIRCLE ( 'NONE', #168, 12.50000000000000000 ) ;
#71 = AXIS2_PLACEMENT_3D ( 'NONE', #116, #62, #37 ) ;
#72 = DATE_AND_TIME ( #34, #109 ) ;
#73 = AXIS2_PLACEMENT_3D ( 'NONE', #161, #147, #101 ) ;
#74 = VECTOR ( 'NONE', #152, 1000.000000000000000 ) ;
#75 = PERSON_AND_ORGANIZATION ( #131, #68 ) ;
#76 = DIRECTION ( 'NONE',  ( 0.0000000000000000000, 0.0000000000000000000, 1.000000000000000000 ) ) ;
#77 = CARTESIAN_POINT ( 'NONE',  ( -12.50000000000000000, 0.0000000000000000000, 2.299999999999999822 ) ) ;
#78 = DIRECTION ( 'NONE',  ( 0.0000000000000000000, 0.0000000000000000000, 1.000000000000000000 ) ) ;
#79 = PERSON_AND_ORGANIZATION_ROLE ( 'creator' ) ;
#80 = SECURITY_CLASSIFICATION_LEVEL ( 'unclassified' ) ;
#81 = EDGE_CURVE ( 'NONE', #51, #141, #10, .T. ) ;
#82 = DATE_AND_TIME ( #121, #23 ) ;
#83 = VECTOR ( 'NONE', #49, 1000.000000000000000 ) ;
#84 = PLANE ( 'NONE',  #111 ) ;
#85 = CARTESIAN_POINT ( 'NONE',  ( 0.0000000000000000000, 0.0000000000000000000, 2.299999999999999822 ) ) ;
#86 = PERSON_AND_ORGANIZATION ( #131, #68 ) ;
#87 = CARTESIAN_POINT ( 'NONE',  ( 0.0000000000000000000, 0.0000000000000000000, 2.299999999999999822 ) ) ;
#88 = ORIENTED_EDGE ( 'NONE', *, *, #118, .F. ) ;
#89 =( NAMED_UNIT ( * ) PLANE_ANGLE_UNIT ( ) SI_UNIT ( $, .RADIAN. ) );
#90 = PRODUCT_DEFINITION_FORMATION_WITH_SPECIFIED_SOURCE ( 'ANY', '', #164, .NOT_KNOWN. ) ;
#91 = ORIENTED_EDGE ( 'NONE', *, *, #93, .F. ) ;
#92 = DATE_TIME_ROLE ( 'creation_date' ) ;
#93 = EDGE_CURVE ( 'NONE', #127, #174, #106, .T. ) ;
#94 = AXIS2_PLACEMENT_3D ( 'NONE', #12, #63, #132 ) ;
#95 = ORIENTED_EDGE ( 'NONE', *, *, #58, .F. ) ;
#96 = CC_DESIGN_SECURITY_CLASSIFICATION ( #47, ( #90 ) ) ;
#97 = CALENDAR_DATE ( 2020, 21, 10 ) ;
#98 = EDGE_CURVE ( 'NONE', #174, #127, #69, .T. ) ;
#99 = DATE_AND_TIME ( #97, #125 ) ;
#100 = EDGE_LOOP ( 'NONE', ( #151, #128, #7, #95 ) ) ;
#101 = DIRECTION ( 'NONE',  ( -1.000000000000000000, 0.0000000000000000000, 0.0000000000000000000 ) ) ;
#102 =( NAMED_UNIT ( * ) SI_UNIT ( $, .STERADIAN. ) SOLID_ANGLE_UNIT ( ) );
#103 = PERSON_AND_ORGANIZATION_ROLE ( 'creator' ) ;
#104 = CALENDAR_DATE ( 2020, 21, 10 ) ;
#105 = PERSON_AND_ORGANIZATION_ROLE ( 'design_supplier' ) ;
#106 = CIRCLE ( 'NONE', #71, 12.50000000000000000 ) ;
#107 = CC_DESIGN_PERSON_AND_ORGANIZATION_ASSIGNMENT ( #167, #65, ( #164 ) ) ;
#108 = ORIENTED_EDGE ( 'NONE', *, *, #58, .T. ) ;
#109 = LOCAL_TIME ( 14, 24, 40.00000000000000000, #8 ) ;
#110 = EDGE_LOOP ( 'NONE', ( #88, #140, #108, #114 ) ) ;
#111 = AXIS2_PLACEMENT_3D ( 'NONE', #35, #46, #129 ) ;
#112 = DIRECTION ( 'NONE',  ( 0.0000000000000000000, 0.0000000000000000000, 1.000000000000000000 ) ) ;
#113 = DIRECTION ( 'NONE',  ( 1.000000000000000000, 0.0000000000000000000, -0.0000000000000000000 ) ) ;
#114 = ORIENTED_EDGE ( 'NONE', *, *, #98, .T. ) ;
#115 = CC_DESIGN_PERSON_AND_ORGANIZATION_ASSIGNMENT ( #75, #79, ( #90 ) ) ;
#116 = CARTESIAN_POINT ( 'NONE',  ( 0.0000000000000000000, 0.0000000000000000000, 0.0000000000000000000 ) ) ;
#117 = EDGE_LOOP ( 'NONE', ( #157, #40 ) ) ;
#118 = EDGE_CURVE ( 'NONE', #51, #127, #138, .T. ) ;
#119 = APPROVAL_STATUS ( 'not_yet_approved' ) ;
#120 = APPROVAL_ROLE ( '' ) ;
#121 = CALENDAR_DATE ( 2020, 21, 10 ) ;
#122 = FACE_OUTER_BOUND ( 'NONE', #17, .T. ) ;
#123 = APPROVAL_PERSON_ORGANIZATION ( #156, #28, #120 ) ;
#124 = DATE_AND_TIME ( #41, #24 ) ;
#125 = LOCAL_TIME ( 14, 24, 40.00000000000000000, #173 ) ;
#126 = FACE_OUTER_BOUND ( 'NONE', #100, .T. ) ;
#127 = VERTEX_POINT ( 'NONE', #171 ) ;
#128 = ORIENTED_EDGE ( 'NONE', *, *, #118, .T. ) ;
#129 = DIRECTION ( 'NONE',  ( 1.000000000000000000, 0.0000000000000000000, -0.0000000000000000000 ) ) ;
#130 = AXIS2_PLACEMENT_3D ( 'NONE', #85, #25, #61 ) ;
#131 = PERSON ( 'UNSPECIFIED', 'UNSPECIFIED', 'UNSPECIFIED', ('UNSPECIFIED'), ('UNSPECIFIED'), ('UNSPECIFIED') ) ;
#132 = DIRECTION ( 'NONE',  ( 1.000000000000000000, 0.0000000000000000000, 0.0000000000000000000 ) ) ;
#133 = COORDINATED_UNIVERSAL_TIME_OFFSET ( 5, 0, .BEHIND. ) ;
#134 = CC_DESIGN_PERSON_AND_ORGANIZATION_ASSIGNMENT ( #15, #137, ( #47 ) ) ;
#135 = APPROVAL_DATE_TIME ( #99, #165 ) ;
#136 = DATE_TIME_ROLE ( 'classification_date' ) ;
#137 = PERSON_AND_ORGANIZATION_ROLE ( 'classification_officer' ) ;
#138 = LINE ( 'NONE', #145, #74 ) ;
#139 = CC_DESIGN_PERSON_AND_ORGANIZATION_ASSIGNMENT ( #22, #105, ( #90 ) ) ;
#140 = ORIENTED_EDGE ( 'NONE', *, *, #48, .F. ) ;
#141 = VERTEX_POINT ( 'NONE', #77 ) ;
#142 = UNCERTAINTY_MEASURE_WITH_UNIT (LENGTH_MEASURE( 1.000000000000000082E-05 ), #160, 'distance_accuracy_value', 'NONE');
#143 = CARTESIAN_POINT ( 'NONE',  ( 12.50000000000000000, 1.530808498934191521E-15, 2.299999999999999822 ) ) ;
#144 = DESIGN_CONTEXT ( 'detailed design', #172, 'design' ) ;
#145 = CARTESIAN_POINT ( 'NONE',  ( 12.50000000000000000, 1.530808498934191521E-15, 2.299999999999999822 ) ) ;
#146 = FACE_OUTER_BOUND ( 'NONE', #117, .T. ) ;
#147 = DIRECTION ( 'NONE',  ( -0.0000000000000000000, -0.0000000000000000000, -1.000000000000000000 ) ) ;
#148 = AXIS2_PLACEMENT_3D ( 'NONE', #87, #78, #149 ) ;
#149 = DIRECTION ( 'NONE',  ( 1.000000000000000000, 0.0000000000000000000, 0.0000000000000000000 ) ) ;
#150 = APPLICATION_CONTEXT ( 'configuration controlled 3d designs of mechanical parts and assemblies' ) ;
#151 = ORIENTED_EDGE ( 'NONE', *, *, #81, .F. ) ;
#152 = DIRECTION ( 'NONE',  ( -0.0000000000000000000, -0.0000000000000000000, -1.000000000000000000 ) ) ;
#153 = APPROVAL_STATUS ( 'not_yet_approved' ) ;
#154 = CYLINDRICAL_SURFACE ( 'NONE', #130, 12.50000000000000000 ) ;
#155 = APPROVAL_DATE_TIME ( #56, #28 ) ;
#156 = PERSON_AND_ORGANIZATION ( #131, #68 ) ;
#157 = ORIENTED_EDGE ( 'NONE', *, *, #48, .T. ) ;
#158 = APPROVAL ( #153, 'UNSPECIFIED' ) ;
#159 = CLOSED_SHELL ( 'NONE', ( #59, #3, #45, #5 ) ) ;
#160 =( LENGTH_UNIT ( ) NAMED_UNIT ( * ) SI_UNIT ( .MILLI., .METRE. ) );
#161 = CARTESIAN_POINT ( 'NONE',  ( 0.0000000000000000000, 0.0000000000000000000, 2.299999999999999822 ) ) ;
#162 = MECHANICAL_CONTEXT ( 'NONE', #150, 'mechanical' ) ;
#163 = APPROVAL_STATUS ( 'not_yet_approved' ) ;
#164 = PRODUCT ( 'Web Model 43369_43369', 'Web Model 43369_43369', '', ( #162 ) ) ;
#165 = APPROVAL ( #119, 'UNSPECIFIED' ) ;
#166 = CC_DESIGN_APPROVAL ( #165, ( #11 ) ) ;
#167 = PERSON_AND_ORGANIZATION ( #131, #68 ) ;
#168 = AXIS2_PLACEMENT_3D ( 'NONE', #50, #76, #169 ) ;
#169 = DIRECTION ( 'NONE',  ( 1.000000000000000000, 0.0000000000000000000, 0.0000000000000000000 ) ) ;
#170 = CC_DESIGN_PERSON_AND_ORGANIZATION_ASSIGNMENT ( #86, #103, ( #11 ) ) ;
#171 = CARTESIAN_POINT ( 'NONE',  ( 12.50000000000000000, 1.530808498934191521E-15, 0.0000000000000000000 ) ) ;
#172 = APPLICATION_CONTEXT ( 'configuration controlled 3d designs of mechanical parts and assemblies' ) ;
#173 = COORDINATED_UNIVERSAL_TIME_OFFSET ( 5, 0, .BEHIND. ) ;
#174 = VERTEX_POINT ( 'NONE', #38 ) ;
#175 = CC_DESIGN_DATE_AND_TIME_ASSIGNMENT ( #124, #136, ( #47 ) ) ;
ENDSEC;
END-ISO-10303-21;
