ISO-10303-21;
HEADER;
FILE_DESCRIPTION (( 'STEP AP203' ),
    '1' );
FILE_NAME ('Web Model 19841_19891.step',
    '2022-04-06T15:20:05',
    ( 'WC' ),
    ( 'Windows Central' ),
    'SwSTEP 2.0',
    'SolidWorks 2021',
    '' );
FILE_SCHEMA (( 'CONFIG_CONTROL_DESIGN' ));
ENDSEC;

DATA;
#1 = LOCAL_TIME ( 11, 20, 5.000000000000000000, #47 ) ;
#2 = CARTESIAN_POINT ( 'NONE',  ( 0.000000000000000000, 0.000000000000000000, 0.000000000000000000 ) ) ;
#3 = DATE_AND_TIME ( #17, #126 ) ;
#4 = DATE_AND_TIME ( #7, #1 ) ;
#5 = PRODUCT_DEFINITION_SHAPE ( 'NONE', 'NONE',  #143 ) ;
#6 = CIRCLE ( 'NONE', #115, 25.00000000000000000 ) ;
#7 = CALENDAR_DATE ( 2022, 6, 4 ) ;
#8 = VERTEX_POINT ( 'NONE', #147 ) ;
#9 = FACE_OUTER_BOUND ( 'NONE', #78, .T. ) ;
#10 = ORIENTED_EDGE ( 'NONE', *, *, #60, .F. ) ;
#11 = ADVANCED_FACE ( 'NONE', ( #9 ), #69, .T. ) ;
#12 = CC_DESIGN_SECURITY_CLASSIFICATION ( #21, ( #28 ) ) ;
#13 = DIRECTION ( 'NONE',  ( 0.000000000000000000, 0.000000000000000000, 1.000000000000000000 ) ) ;
#14 = APPROVAL ( #106, 'UNSPECIFIED' ) ;
#15 = APPLICATION_CONTEXT ( 'configuration controlled 3d designs of mechanical parts and assemblies' ) ;
#16 =( LENGTH_UNIT ( ) NAMED_UNIT ( * ) SI_UNIT ( .MILLI., .METRE. ) );
#17 = CALENDAR_DATE ( 2022, 6, 4 ) ;
#18 = PERSON_AND_ORGANIZATION_ROLE ( 'creator' ) ;
#19 = PERSON_AND_ORGANIZATION ( #33, #172 ) ;
#20 = SHAPE_DEFINITION_REPRESENTATION ( #5, #92 ) ;
#21 = SECURITY_CLASSIFICATION ( '', '', #163 ) ;
#22 = ORIENTED_EDGE ( 'NONE', *, *, #42, .T. ) ;
#23 = ORIENTED_EDGE ( 'NONE', *, *, #137, .T. ) ;
#24 = CIRCLE ( 'NONE', #83, 25.00000000000000000 ) ;
#25 = VERTEX_POINT ( 'NONE', #81 ) ;
#26 = EDGE_CURVE ( 'NONE', #97, #25, #24, .T. ) ;
#27 = DIRECTION ( 'NONE',  ( 1.000000000000000000, 0.000000000000000000, -0.000000000000000000 ) ) ;
#28 = PRODUCT_DEFINITION_FORMATION_WITH_SPECIFIED_SOURCE ( 'ANY', '', #66, .NOT_KNOWN. ) ;
#29 = ORIENTED_EDGE ( 'NONE', *, *, #60, .T. ) ;
#30 = DIRECTION ( 'NONE',  ( 1.000000000000000000, 0.000000000000000000, -0.000000000000000000 ) ) ;
#31 = PERSON_AND_ORGANIZATION ( #33, #172 ) ;
#32 = APPLICATION_PROTOCOL_DEFINITION ( 'international standard', 'config_control_design', 1994, #59 ) ;
#33 = PERSON ( 'UNSPECIFIED', 'UNSPECIFIED', 'UNSPECIFIED', ('UNSPECIFIED'), ('UNSPECIFIED'), ('UNSPECIFIED') ) ;
#34 = PERSON_AND_ORGANIZATION_ROLE ( 'creator' ) ;
#35 = CC_DESIGN_DATE_AND_TIME_ASSIGNMENT ( #4, #157, ( #143 ) ) ;
#36 = CARTESIAN_POINT ( 'NONE',  ( 25.00000000000000000, 3.061616997868383043E-15, 3.000000000000000000 ) ) ;
#37 = CARTESIAN_POINT ( 'NONE',  ( 0.000000000000000000, 0.000000000000000000, 3.000000000000000000 ) ) ;
#38 = FACE_OUTER_BOUND ( 'NONE', #133, .T. ) ;
#39 = ORIENTED_EDGE ( 'NONE', *, *, #76, .F. ) ;
#40 = ORIENTED_EDGE ( 'NONE', *, *, #26, .T. ) ;
#41 = CC_DESIGN_DATE_AND_TIME_ASSIGNMENT ( #120, #168, ( #21 ) ) ;
#42 = EDGE_CURVE ( 'NONE', #25, #150, #108, .T. ) ;
#43 = COORDINATED_UNIVERSAL_TIME_OFFSET ( 5, 0, .BEHIND. ) ;
#44 = CARTESIAN_POINT ( 'NONE',  ( 0.000000000000000000, 0.000000000000000000, 0.000000000000000000 ) ) ;
#45 = DIRECTION ( 'NONE',  ( 1.000000000000000000, 0.000000000000000000, 0.000000000000000000 ) ) ;
#46 = DIRECTION ( 'NONE',  ( 0.000000000000000000, 0.000000000000000000, 1.000000000000000000 ) ) ;
#47 = COORDINATED_UNIVERSAL_TIME_OFFSET ( 5, 0, .BEHIND. ) ;
#48 = PERSON_AND_ORGANIZATION_ROLE ( 'classification_officer' ) ;
#49 = CC_DESIGN_PERSON_AND_ORGANIZATION_ASSIGNMENT ( #121, #48, ( #21 ) ) ;
#50 = CC_DESIGN_PERSON_AND_ORGANIZATION_ASSIGNMENT ( #19, #169, ( #66 ) ) ;
#51 = CLOSED_SHELL ( 'NONE', ( #90, #82, #11, #158 ) ) ;
#52 = ORIENTED_EDGE ( 'NONE', *, *, #145, .F. ) ;
#53 = LINE ( 'NONE', #161, #105 ) ;
#54 = LOCAL_TIME ( 11, 20, 5.000000000000000000, #43 ) ;
#55 = CARTESIAN_POINT ( 'NONE',  ( 0.000000000000000000, 0.000000000000000000, 3.000000000000000000 ) ) ;
#56 = DIRECTION ( 'NONE',  ( -0.000000000000000000, -0.000000000000000000, -1.000000000000000000 ) ) ;
#57 = UNCERTAINTY_MEASURE_WITH_UNIT (LENGTH_MEASURE( 1.000000000000000082E-05 ), #16, 'distance_accuracy_value', 'NONE');
#58 = CC_DESIGN_APPROVAL ( #14, ( #21 ) ) ;
#59 = APPLICATION_CONTEXT ( 'configuration controlled 3d designs of mechanical parts and assemblies' ) ;
#60 = EDGE_CURVE ( 'NONE', #8, #150, #122, .T. ) ;
#61 = CARTESIAN_POINT ( 'NONE',  ( -25.00000000000000000, 0.000000000000000000, 3.000000000000000000 ) ) ;
#62 = APPROVAL_PERSON_ORGANIZATION ( #99, #14, #89 ) ;
#63 = PERSON_AND_ORGANIZATION ( #33, #172 ) ;
#64 = APPROVAL_DATE_TIME ( #3, #132 ) ;
#65 = CALENDAR_DATE ( 2022, 6, 4 ) ;
#66 = PRODUCT ( 'Web Model 19841_19891', 'Web Model 19841_19891', '', ( #155 ) ) ;
#67 = CC_DESIGN_APPROVAL ( #114, ( #28 ) ) ;
#68 = ORIENTED_EDGE ( 'NONE', *, *, #26, .F. ) ;
#69 = PLANE ( 'NONE',  #159 ) ;
#70 = ORIENTED_EDGE ( 'NONE', *, *, #137, .F. ) ;
#71 = CC_DESIGN_PERSON_AND_ORGANIZATION_ASSIGNMENT ( #107, #34, ( #143 ) ) ;
#72 = AXIS2_PLACEMENT_3D ( 'NONE', #2, #129, #167 ) ;
#73 = DIRECTION ( 'NONE',  ( 1.000000000000000000, 0.000000000000000000, 0.000000000000000000 ) ) ;
#74 = CARTESIAN_POINT ( 'NONE',  ( 0.000000000000000000, 0.000000000000000000, 3.000000000000000000 ) ) ;
#75 = APPROVAL_STATUS ( 'not_yet_approved' ) ;
#76 = EDGE_CURVE ( 'NONE', #97, #8, #53, .T. ) ;
#77 = ORIENTED_EDGE ( 'NONE', *, *, #76, .T. ) ;
#78 = EDGE_LOOP ( 'NONE', ( #40, #23 ) ) ;
#79 = CC_DESIGN_PERSON_AND_ORGANIZATION_ASSIGNMENT ( #31, #18, ( #28 ) ) ;
#80 = EDGE_LOOP ( 'NONE', ( #135, #68, #77, #29 ) ) ;
#81 = CARTESIAN_POINT ( 'NONE',  ( 25.00000000000000000, 3.061616997868383043E-15, 3.000000000000000000 ) ) ;
#82 = ADVANCED_FACE ( 'NONE', ( #162 ), #146, .T. ) ;
#83 = AXIS2_PLACEMENT_3D ( 'NONE', #136, #13, #73 ) ;
#84 =( GEOMETRIC_REPRESENTATION_CONTEXT ( 3 ) GLOBAL_UNCERTAINTY_ASSIGNED_CONTEXT ( ( #57 ) ) GLOBAL_UNIT_ASSIGNED_CONTEXT ( ( #16, #138, #142 ) ) REPRESENTATION_CONTEXT ( 'NONE', 'WORKASPACE' ) );
#85 = AXIS2_PLACEMENT_3D ( 'NONE', #37, #93, #109 ) ;
#86 = PERSON_AND_ORGANIZATION ( #33, #172 ) ;
#87 = DIRECTION ( 'NONE',  ( 0.000000000000000000, 0.000000000000000000, 1.000000000000000000 ) ) ;
#88 = PERSON_AND_ORGANIZATION ( #33, #172 ) ;
#89 = APPROVAL_ROLE ( '' ) ;
#90 = ADVANCED_FACE ( 'NONE', ( #38 ), #95, .T. ) ;
#91 = LOCAL_TIME ( 11, 20, 5.000000000000000000, #165 ) ;
#92 = ADVANCED_BREP_SHAPE_REPRESENTATION ( 'Web Model 19841_19891', ( #100, #72 ), #84 ) ;
#93 = DIRECTION ( 'NONE',  ( -0.000000000000000000, -0.000000000000000000, -1.000000000000000000 ) ) ;
#94 = APPROVAL_PERSON_ORGANIZATION ( #88, #114, #141 ) ;
#95 = CYLINDRICAL_SURFACE ( 'NONE', #127, 25.00000000000000000 ) ;
#96 = DIRECTION ( 'NONE',  ( 0.000000000000000000, 0.000000000000000000, 1.000000000000000000 ) ) ;
#97 = VERTEX_POINT ( 'NONE', #61 ) ;
#98 = CC_DESIGN_PERSON_AND_ORGANIZATION_ASSIGNMENT ( #63, #117, ( #28 ) ) ;
#99 = PERSON_AND_ORGANIZATION ( #33, #172 ) ;
#100 = MANIFOLD_SOLID_BREP ( 'Boss-Extrude1', #51 ) ;
#101 = CARTESIAN_POINT ( 'NONE',  ( 0.000000000000000000, 0.000000000000000000, 0.000000000000000000 ) ) ;
#102 = FACE_OUTER_BOUND ( 'NONE', #151, .T. ) ;
#103 = DATE_AND_TIME ( #166, #124 ) ;
#104 = CARTESIAN_POINT ( 'NONE',  ( 25.00000000000000000, 3.061616997868383043E-15, 0.000000000000000000 ) ) ;
#105 = VECTOR ( 'NONE', #56, 1000.000000000000000 ) ;
#106 = APPROVAL_STATUS ( 'not_yet_approved' ) ;
#107 = PERSON_AND_ORGANIZATION ( #33, #172 ) ;
#108 = LINE ( 'NONE', #36, #149 ) ;
#109 = DIRECTION ( 'NONE',  ( -1.000000000000000000, 0.000000000000000000, 0.000000000000000000 ) ) ;
#110 = CC_DESIGN_APPROVAL ( #132, ( #143 ) ) ;
#111 = AXIS2_PLACEMENT_3D ( 'NONE', #116, #46, #45 ) ;
#112 = CARTESIAN_POINT ( 'NONE',  ( 0.000000000000000000, 0.000000000000000000, 0.000000000000000000 ) ) ;
#113 = DESIGN_CONTEXT ( 'detailed design', #59, 'design' ) ;
#114 = APPROVAL ( #128, 'UNSPECIFIED' ) ;
#115 = AXIS2_PLACEMENT_3D ( 'NONE', #44, #164, #153 ) ;
#116 = CARTESIAN_POINT ( 'NONE',  ( 0.000000000000000000, 0.000000000000000000, 3.000000000000000000 ) ) ;
#117 = PERSON_AND_ORGANIZATION_ROLE ( 'design_supplier' ) ;
#118 = DATE_AND_TIME ( #152, #54 ) ;
#119 = COORDINATED_UNIVERSAL_TIME_OFFSET ( 5, 0, .BEHIND. ) ;
#120 = DATE_AND_TIME ( #65, #91 ) ;
#121 = PERSON_AND_ORGANIZATION ( #33, #172 ) ;
#122 = CIRCLE ( 'NONE', #134, 25.00000000000000000 ) ;
#123 = DIRECTION ( 'NONE',  ( -0.000000000000000000, -0.000000000000000000, -1.000000000000000000 ) ) ;
#124 = LOCAL_TIME ( 11, 20, 5.000000000000000000, #154 ) ;
#125 = DIRECTION ( 'NONE',  ( 1.000000000000000000, 0.000000000000000000, 0.000000000000000000 ) ) ;
#126 = LOCAL_TIME ( 11, 20, 5.000000000000000000, #119 ) ;
#127 = AXIS2_PLACEMENT_3D ( 'NONE', #74, #175, #130 ) ;
#128 = APPROVAL_STATUS ( 'not_yet_approved' ) ;
#129 = DIRECTION ( 'NONE',  ( 0.000000000000000000, 0.000000000000000000, 1.000000000000000000 ) ) ;
#130 = DIRECTION ( 'NONE',  ( -1.000000000000000000, 0.000000000000000000, 0.000000000000000000 ) ) ;
#131 = APPLICATION_PROTOCOL_DEFINITION ( 'international standard', 'config_control_design', 1994, #15 ) ;
#132 = APPROVAL ( #75, 'UNSPECIFIED' ) ;
#133 = EDGE_LOOP ( 'NONE', ( #70, #22, #173, #39 ) ) ;
#134 = AXIS2_PLACEMENT_3D ( 'NONE', #112, #170, #125 ) ;
#135 = ORIENTED_EDGE ( 'NONE', *, *, #42, .F. ) ;
#136 = CARTESIAN_POINT ( 'NONE',  ( 0.000000000000000000, 0.000000000000000000, 3.000000000000000000 ) ) ;
#137 = EDGE_CURVE ( 'NONE', #25, #97, #148, .T. ) ;
#138 =( NAMED_UNIT ( * ) PLANE_ANGLE_UNIT ( ) SI_UNIT ( $, .RADIAN. ) );
#139 = APPROVAL_ROLE ( '' ) ;
#140 = PLANE ( 'NONE',  #174 ) ;
#141 = APPROVAL_ROLE ( '' ) ;
#142 =( NAMED_UNIT ( * ) SI_UNIT ( $, .STERADIAN. ) SOLID_ANGLE_UNIT ( ) );
#143 = PRODUCT_DEFINITION ( 'UNKNOWN', '', #28, #113 ) ;
#144 = APPROVAL_DATE_TIME ( #118, #14 ) ;
#145 = EDGE_CURVE ( 'NONE', #150, #8, #6, .T. ) ;
#146 = CYLINDRICAL_SURFACE ( 'NONE', #85, 25.00000000000000000 ) ;
#147 = CARTESIAN_POINT ( 'NONE',  ( -25.00000000000000000, 0.000000000000000000, 0.000000000000000000 ) ) ;
#148 = CIRCLE ( 'NONE', #111, 25.00000000000000000 ) ;
#149 = VECTOR ( 'NONE', #123, 1000.000000000000000 ) ;
#150 = VERTEX_POINT ( 'NONE', #104 ) ;
#151 = EDGE_LOOP ( 'NONE', ( #10, #52 ) ) ;
#152 = CALENDAR_DATE ( 2022, 6, 4 ) ;
#153 = DIRECTION ( 'NONE',  ( 1.000000000000000000, 0.000000000000000000, 0.000000000000000000 ) ) ;
#154 = COORDINATED_UNIVERSAL_TIME_OFFSET ( 5, 0, .BEHIND. ) ;
#155 = MECHANICAL_CONTEXT ( 'NONE', #15, 'mechanical' ) ;
#156 = APPROVAL_DATE_TIME ( #103, #114 ) ;
#157 = DATE_TIME_ROLE ( 'creation_date' ) ;
#158 = ADVANCED_FACE ( 'NONE', ( #102 ), #140, .F. ) ;
#159 = AXIS2_PLACEMENT_3D ( 'NONE', #55, #96, #27 ) ;
#160 = APPROVAL_PERSON_ORGANIZATION ( #86, #132, #139 ) ;
#161 = CARTESIAN_POINT ( 'NONE',  ( -25.00000000000000000, 0.000000000000000000, 3.000000000000000000 ) ) ;
#162 = FACE_OUTER_BOUND ( 'NONE', #80, .T. ) ;
#163 = SECURITY_CLASSIFICATION_LEVEL ( 'unclassified' ) ;
#164 = DIRECTION ( 'NONE',  ( 0.000000000000000000, 0.000000000000000000, 1.000000000000000000 ) ) ;
#165 = COORDINATED_UNIVERSAL_TIME_OFFSET ( 5, 0, .BEHIND. ) ;
#166 = CALENDAR_DATE ( 2022, 6, 4 ) ;
#167 = DIRECTION ( 'NONE',  ( 1.000000000000000000, 0.000000000000000000, 0.000000000000000000 ) ) ;
#168 = DATE_TIME_ROLE ( 'classification_date' ) ;
#169 = PERSON_AND_ORGANIZATION_ROLE ( 'design_owner' ) ;
#170 = DIRECTION ( 'NONE',  ( 0.000000000000000000, 0.000000000000000000, 1.000000000000000000 ) ) ;
#171 = PRODUCT_RELATED_PRODUCT_CATEGORY ( 'detail', '', ( #66 ) ) ;
#172 = ORGANIZATION ( 'UNSPECIFIED', 'UNSPECIFIED', '' ) ;
#173 = ORIENTED_EDGE ( 'NONE', *, *, #145, .T. ) ;
#174 = AXIS2_PLACEMENT_3D ( 'NONE', #101, #87, #30 ) ;
#175 = DIRECTION ( 'NONE',  ( -0.000000000000000000, -0.000000000000000000, -1.000000000000000000 ) ) ;
ENDSEC;
END-ISO-10303-21;
