ISO-10303-21;
HEADER;
FILE_DESCRIPTION (( 'STEP AP203' ),
    '1' );
FILE_NAME ('Web Model 62606_37070.step',
    '2017-09-06T15:10:33',
    ( '' ),
    ( '' ),
    'SwSTEP 2.0',
    'SolidWorks 2016',
    '' );
FILE_SCHEMA (( 'CONFIG_CONTROL_DESIGN' ));
ENDSEC;

DATA;
#1 = ORIENTED_EDGE ( 'NONE', *, *, #106, .F. ) ;
#2 = DIRECTION ( 'NONE',  ( 1.000000000000000000, 0.0000000000000000000, 0.0000000000000000000 ) ) ;
#3 = CARTESIAN_POINT ( 'NONE',  ( -37.50000000000000700, 0.0000000000000000000, 0.0000000000000000000 ) ) ;
#4 = DIRECTION ( 'NONE',  ( 0.0000000000000000000, 0.0000000000000000000, 1.000000000000000000 ) ) ;
#5 = DIRECTION ( 'NONE',  ( 0.0000000000000000000, 0.0000000000000000000, 1.000000000000000000 ) ) ;
#6 = ORIENTED_EDGE ( 'NONE', *, *, #166, .T. ) ;
#7 = CARTESIAN_POINT ( 'NONE',  ( 0.0000000000000000000, 0.0000000000000000000, 0.0000000000000000000 ) ) ;
#8 = APPROVAL_STATUS ( 'not_yet_approved' ) ;
#9 = APPROVAL_ROLE ( '' ) ;
#10 = DATE_AND_TIME ( #42, #155 ) ;
#11 = ORIENTED_EDGE ( 'NONE', *, *, #21, .F. ) ;
#12 = COORDINATED_UNIVERSAL_TIME_OFFSET ( 5, 0, .BEHIND. ) ;
#13 = ORIENTED_EDGE ( 'NONE', *, *, #15, .T. ) ;
#14 = ORGANIZATION ( 'UNSPECIFIED', 'UNSPECIFIED', '' ) ;
#15 = EDGE_CURVE ( 'NONE', #51, #74, #172, .T. ) ;
#16 = DIRECTION ( 'NONE',  ( 1.000000000000000000, 0.0000000000000000000, -0.0000000000000000000 ) ) ;
#17 = PLANE ( 'NONE',  #54 ) ;
#18 = PERSON_AND_ORGANIZATION ( #23, #14 ) ;
#19 = PERSON_AND_ORGANIZATION_ROLE ( 'creator' ) ;
#20 = FACE_OUTER_BOUND ( 'NONE', #164, .T. ) ;
#21 = EDGE_CURVE ( 'NONE', #96, #51, #105, .T. ) ;
#22 = FACE_OUTER_BOUND ( 'NONE', #137, .T. ) ;
#23 = PERSON ( 'UNSPECIFIED', 'UNSPECIFIED', 'UNSPECIFIED', ('UNSPECIFIED'), ('UNSPECIFIED'), ('UNSPECIFIED') ) ;
#24 = VECTOR ( 'NONE', #102, 1000.000000000000000 ) ;
#25 = CARTESIAN_POINT ( 'NONE',  ( 37.50000000000000700, 4.592425496802575200E-015, 4.000000000000000000 ) ) ;
#26 = CARTESIAN_POINT ( 'NONE',  ( 0.0000000000000000000, 0.0000000000000000000, 0.0000000000000000000 ) ) ;
#27 = EDGE_CURVE ( 'NONE', #74, #51, #140, .T. ) ;
#28 = CARTESIAN_POINT ( 'NONE',  ( 37.50000000000000700, 4.592425496802575200E-015, 0.0000000000000000000 ) ) ;
#29 = CIRCLE ( 'NONE', #94, 37.50000000000000700 ) ;
#30 = ADVANCED_BREP_SHAPE_REPRESENTATION ( 'Web Model 62606_37070', ( #93, #97 ), #139 ) ;
#31 = APPROVAL_ROLE ( '' ) ;
#32 = ADVANCED_FACE ( 'NONE', ( #64 ), #63, .T. ) ;
#33 = ORIENTED_EDGE ( 'NONE', *, *, #21, .T. ) ;
#34 = DESIGN_CONTEXT ( 'detailed design', #61, 'design' ) ;
#35 = ORIENTED_EDGE ( 'NONE', *, *, #166, .F. ) ;
#36 = PERSON_AND_ORGANIZATION ( #23, #14 ) ;
#37 = DIRECTION ( 'NONE',  ( 1.000000000000000000, 0.0000000000000000000, 0.0000000000000000000 ) ) ;
#38 = PRODUCT_DEFINITION ( 'UNKNOWN', '', #147, #34 ) ;
#39 = DIRECTION ( 'NONE',  ( 1.000000000000000000, 0.0000000000000000000, 0.0000000000000000000 ) ) ;
#40 = DATE_AND_TIME ( #87, #56 ) ;
#41 = DIRECTION ( 'NONE',  ( -1.000000000000000000, 0.0000000000000000000, 0.0000000000000000000 ) ) ;
#42 = CALENDAR_DATE ( 2017, 6, 9 ) ;
#43 = AXIS2_PLACEMENT_3D ( 'NONE', #86, #55, #151 ) ;
#44 = SECURITY_CLASSIFICATION_LEVEL ( 'unclassified' ) ;
#45 = COORDINATED_UNIVERSAL_TIME_OFFSET ( 5, 0, .BEHIND. ) ;
#46 = AXIS2_PLACEMENT_3D ( 'NONE', #165, #4, #16 ) ;
#47 = ADVANCED_FACE ( 'NONE', ( #20 ), #17, .F. ) ;
#48 = LOCAL_TIME ( 11, 10, 33.00000000000000000, #98 ) ;
#49 = CC_DESIGN_APPROVAL ( #132, ( #147 ) ) ;
#50 = PERSON_AND_ORGANIZATION ( #23, #14 ) ;
#51 = VERTEX_POINT ( 'NONE', #3 ) ;
#52 = AXIS2_PLACEMENT_3D ( 'NONE', #69, #104, #39 ) ;
#53 = DATE_AND_TIME ( #80, #91 ) ;
#54 = AXIS2_PLACEMENT_3D ( 'NONE', #26, #126, #142 ) ;
#55 = DIRECTION ( 'NONE',  ( -0.0000000000000000000, -0.0000000000000000000, -1.000000000000000000 ) ) ;
#56 = LOCAL_TIME ( 11, 10, 33.00000000000000000, #45 ) ;
#57 = CLOSED_SHELL ( 'NONE', ( #173, #32, #134, #47 ) ) ;
#58 = CARTESIAN_POINT ( 'NONE',  ( 37.50000000000000700, 4.592425496802575200E-015, 4.000000000000000000 ) ) ;
#59 = PERSON_AND_ORGANIZATION_ROLE ( 'design_supplier' ) ;
#60 = COORDINATED_UNIVERSAL_TIME_OFFSET ( 5, 0, .BEHIND. ) ;
#61 = APPLICATION_CONTEXT ( 'configuration controlled 3d designs of mechanical parts and assemblies' ) ;
#62 = CC_DESIGN_PERSON_AND_ORGANIZATION_ASSIGNMENT ( #84, #59, ( #147 ) ) ;
#63 = CYLINDRICAL_SURFACE ( 'NONE', #43, 37.50000000000000700 ) ;
#64 = FACE_OUTER_BOUND ( 'NONE', #148, .T. ) ;
#65 = PERSON_AND_ORGANIZATION ( #23, #14 ) ;
#66 = ORIENTED_EDGE ( 'NONE', *, *, #106, .T. ) ;
#67 = PRODUCT ( 'Web Model 62606_37070', 'Web Model 62606_37070', '', ( #169 ) ) ;
#68 = CARTESIAN_POINT ( 'NONE',  ( 0.0000000000000000000, 0.0000000000000000000, 0.0000000000000000000 ) ) ;
#69 = CARTESIAN_POINT ( 'NONE',  ( 0.0000000000000000000, 0.0000000000000000000, 4.000000000000000000 ) ) ;
#70 = VERTEX_POINT ( 'NONE', #58 ) ;
#71 = APPROVAL_STATUS ( 'not_yet_approved' ) ;
#72 = EDGE_CURVE ( 'NONE', #70, #96, #77, .T. ) ;
#73 = LOCAL_TIME ( 11, 10, 33.00000000000000000, #121 ) ;
#74 = VERTEX_POINT ( 'NONE', #28 ) ;
#75 = DIRECTION ( 'NONE',  ( 1.000000000000000000, 0.0000000000000000000, 0.0000000000000000000 ) ) ;
#76 = SECURITY_CLASSIFICATION ( '', '', #44 ) ;
#77 = CIRCLE ( 'NONE', #52, 37.50000000000000700 ) ;
#78 = VECTOR ( 'NONE', #141, 1000.000000000000000 ) ;
#79 = CC_DESIGN_PERSON_AND_ORGANIZATION_ASSIGNMENT ( #133, #88, ( #67 ) ) ;
#80 = CALENDAR_DATE ( 2017, 6, 9 ) ;
#81 = APPROVAL_DATE_TIME ( #10, #143 ) ;
#82 = APPROVAL ( #131, 'UNSPECIFIED' ) ;
#83 = CARTESIAN_POINT ( 'NONE',  ( 0.0000000000000000000, 0.0000000000000000000, 4.000000000000000000 ) ) ;
#84 = PERSON_AND_ORGANIZATION ( #23, #14 ) ;
#85 = DIRECTION ( 'NONE',  ( 0.0000000000000000000, 0.0000000000000000000, 1.000000000000000000 ) ) ;
#86 = CARTESIAN_POINT ( 'NONE',  ( 0.0000000000000000000, 0.0000000000000000000, 4.000000000000000000 ) ) ;
#87 = CALENDAR_DATE ( 2017, 6, 9 ) ;
#88 = PERSON_AND_ORGANIZATION_ROLE ( 'design_owner' ) ;
#89 = APPLICATION_CONTEXT ( 'configuration controlled 3d designs of mechanical parts and assemblies' ) ;
#90 = AXIS2_PLACEMENT_3D ( 'NONE', #7, #85, #2 ) ;
#91 = LOCAL_TIME ( 11, 10, 33.00000000000000000, #12 ) ;
#92 = ORIENTED_EDGE ( 'NONE', *, *, #72, .F. ) ;
#93 = MANIFOLD_SOLID_BREP ( 'Extrude1', #57 ) ;
#94 = AXIS2_PLACEMENT_3D ( 'NONE', #83, #138, #115 ) ;
#95 = APPROVAL_DATE_TIME ( #125, #82 ) ;
#96 = VERTEX_POINT ( 'NONE', #100 ) ;
#97 = AXIS2_PLACEMENT_3D ( 'NONE', #68, #116, #75 ) ;
#98 = COORDINATED_UNIVERSAL_TIME_OFFSET ( 5, 0, .BEHIND. ) ;
#99 = ORIENTED_EDGE ( 'NONE', *, *, #72, .T. ) ;
#100 = CARTESIAN_POINT ( 'NONE',  ( -37.50000000000000700, 0.0000000000000000000, 4.000000000000000000 ) ) ;
#101 = CC_DESIGN_APPROVAL ( #82, ( #38 ) ) ;
#102 = DIRECTION ( 'NONE',  ( -0.0000000000000000000, -0.0000000000000000000, -1.000000000000000000 ) ) ;
#103 = CARTESIAN_POINT ( 'NONE',  ( 0.0000000000000000000, 0.0000000000000000000, 0.0000000000000000000 ) ) ;
#104 = DIRECTION ( 'NONE',  ( 0.0000000000000000000, 0.0000000000000000000, 1.000000000000000000 ) ) ;
#105 = LINE ( 'NONE', #162, #78 ) ;
#106 = EDGE_CURVE ( 'NONE', #70, #74, #150, .T. ) ;
#107 = PERSON_AND_ORGANIZATION_ROLE ( 'creator' ) ;
#108 = APPLICATION_PROTOCOL_DEFINITION ( 'international standard', 'config_control_design', 1994, #89 ) ;
#109 = PRODUCT_DEFINITION_SHAPE ( 'NONE', 'NONE',  #38 ) ;
#110 = CC_DESIGN_PERSON_AND_ORGANIZATION_ASSIGNMENT ( #36, #158, ( #76 ) ) ;
#111 = AXIS2_PLACEMENT_3D ( 'NONE', #153, #129, #41 ) ;
#112 = APPROVAL_PERSON_ORGANIZATION ( #50, #143, #9 ) ;
#113 = CC_DESIGN_PERSON_AND_ORGANIZATION_ASSIGNMENT ( #18, #107, ( #38 ) ) ;
#114 = SHAPE_DEFINITION_REPRESENTATION ( #109, #30 ) ;
#115 = DIRECTION ( 'NONE',  ( 1.000000000000000000, 0.0000000000000000000, 0.0000000000000000000 ) ) ;
#116 = DIRECTION ( 'NONE',  ( 0.0000000000000000000, 0.0000000000000000000, 1.000000000000000000 ) ) ;
#117 = DATE_TIME_ROLE ( 'creation_date' ) ;
#118 = DATE_TIME_ROLE ( 'classification_date' ) ;
#119 = ORIENTED_EDGE ( 'NONE', *, *, #27, .T. ) ;
#120 = AXIS2_PLACEMENT_3D ( 'NONE', #103, #5, #37 ) ;
#121 = COORDINATED_UNIVERSAL_TIME_OFFSET ( 5, 0, .BEHIND. ) ;
#122 = CC_DESIGN_DATE_AND_TIME_ASSIGNMENT ( #40, #117, ( #38 ) ) ;
#123 = CALENDAR_DATE ( 2017, 6, 9 ) ;
#124 = EDGE_LOOP ( 'NONE', ( #6, #99 ) ) ;
#125 = DATE_AND_TIME ( #123, #48 ) ;
#126 = DIRECTION ( 'NONE',  ( 0.0000000000000000000, 0.0000000000000000000, 1.000000000000000000 ) ) ;
#127 = APPROVAL_DATE_TIME ( #135, #132 ) ;
#128 = CC_DESIGN_PERSON_AND_ORGANIZATION_ASSIGNMENT ( #65, #19, ( #147 ) ) ;
#129 = DIRECTION ( 'NONE',  ( -0.0000000000000000000, -0.0000000000000000000, -1.000000000000000000 ) ) ;
#130 = PLANE ( 'NONE',  #46 ) ;
#131 = APPROVAL_STATUS ( 'not_yet_approved' ) ;
#132 = APPROVAL ( #8, 'UNSPECIFIED' ) ;
#133 = PERSON_AND_ORGANIZATION ( #23, #14 ) ;
#134 = ADVANCED_FACE ( 'NONE', ( #146 ), #130, .T. ) ;
#135 = DATE_AND_TIME ( #161, #73 ) ;
#136 = CC_DESIGN_DATE_AND_TIME_ASSIGNMENT ( #53, #118, ( #76 ) ) ;
#137 = EDGE_LOOP ( 'NONE', ( #92, #66, #119, #11 ) ) ;
#138 = DIRECTION ( 'NONE',  ( 0.0000000000000000000, 0.0000000000000000000, 1.000000000000000000 ) ) ;
#139 =( GEOMETRIC_REPRESENTATION_CONTEXT ( 3 ) GLOBAL_UNCERTAINTY_ASSIGNED_CONTEXT ( ( #167 ) ) GLOBAL_UNIT_ASSIGNED_CONTEXT ( ( #168, #156, #154 ) ) REPRESENTATION_CONTEXT ( 'NONE', 'WORKASPACE' ) );
#140 = CIRCLE ( 'NONE', #120, 37.50000000000000700 ) ;
#141 = DIRECTION ( 'NONE',  ( -0.0000000000000000000, -0.0000000000000000000, -1.000000000000000000 ) ) ;
#142 = DIRECTION ( 'NONE',  ( 1.000000000000000000, 0.0000000000000000000, -0.0000000000000000000 ) ) ;
#143 = APPROVAL ( #71, 'UNSPECIFIED' ) ;
#144 = ORIENTED_EDGE ( 'NONE', *, *, #27, .F. ) ;
#145 = APPROVAL_ROLE ( '' ) ;
#146 = FACE_OUTER_BOUND ( 'NONE', #124, .T. ) ;
#147 = PRODUCT_DEFINITION_FORMATION_WITH_SPECIFIED_SOURCE ( 'ANY', '', #67, .NOT_KNOWN. ) ;
#148 = EDGE_LOOP ( 'NONE', ( #1, #35, #33, #13 ) ) ;
#149 = CC_DESIGN_APPROVAL ( #143, ( #76 ) ) ;
#150 = LINE ( 'NONE', #25, #24 ) ;
#151 = DIRECTION ( 'NONE',  ( -1.000000000000000000, 0.0000000000000000000, 0.0000000000000000000 ) ) ;
#152 = PERSON_AND_ORGANIZATION ( #23, #14 ) ;
#153 = CARTESIAN_POINT ( 'NONE',  ( 0.0000000000000000000, 0.0000000000000000000, 4.000000000000000000 ) ) ;
#154 =( NAMED_UNIT ( * ) SI_UNIT ( $, .STERADIAN. ) SOLID_ANGLE_UNIT ( ) );
#155 = LOCAL_TIME ( 11, 10, 33.00000000000000000, #60 ) ;
#156 =( NAMED_UNIT ( * ) PLANE_ANGLE_UNIT ( ) SI_UNIT ( $, .RADIAN. ) );
#157 = APPLICATION_PROTOCOL_DEFINITION ( 'international standard', 'config_control_design', 1994, #61 ) ;
#158 = PERSON_AND_ORGANIZATION_ROLE ( 'classification_officer' ) ;
#159 = PERSON_AND_ORGANIZATION ( #23, #14 ) ;
#160 = CC_DESIGN_SECURITY_CLASSIFICATION ( #76, ( #147 ) ) ;
#161 = CALENDAR_DATE ( 2017, 6, 9 ) ;
#162 = CARTESIAN_POINT ( 'NONE',  ( -37.50000000000000700, 0.0000000000000000000, 4.000000000000000000 ) ) ;
#163 = APPROVAL_PERSON_ORGANIZATION ( #159, #82, #145 ) ;
#164 = EDGE_LOOP ( 'NONE', ( #174, #144 ) ) ;
#165 = CARTESIAN_POINT ( 'NONE',  ( 0.0000000000000000000, 0.0000000000000000000, 4.000000000000000000 ) ) ;
#166 = EDGE_CURVE ( 'NONE', #96, #70, #29, .T. ) ;
#167 = UNCERTAINTY_MEASURE_WITH_UNIT (LENGTH_MEASURE( 1.000000000000000100E-005 ), #168, 'distance_accuracy_value', 'NONE');
#168 =( LENGTH_UNIT ( ) NAMED_UNIT ( * ) SI_UNIT ( .MILLI., .METRE. ) );
#169 = MECHANICAL_CONTEXT ( 'NONE', #89, 'mechanical' ) ;
#170 = APPROVAL_PERSON_ORGANIZATION ( #152, #132, #31 ) ;
#171 = CYLINDRICAL_SURFACE ( 'NONE', #111, 37.50000000000000700 ) ;
#172 = CIRCLE ( 'NONE', #90, 37.50000000000000700 ) ;
#173 = ADVANCED_FACE ( 'NONE', ( #22 ), #171, .T. ) ;
#174 = ORIENTED_EDGE ( 'NONE', *, *, #15, .F. ) ;
#175 = PRODUCT_RELATED_PRODUCT_CATEGORY ( 'detail', '', ( #67 ) ) ;
ENDSEC;
END-ISO-10303-21;
