ISO-10303-21;
HEADER;
FILE_DESCRIPTION (( 'STEP AP203' ),
    '1' );
FILE_NAME ('Web Model 84458_47840.step',
    '2017-04-03T16:39:26',
    ( '' ),
    ( '' ),
    'SwSTEP 2.0',
    'SolidWorks 2016',
    '' );
FILE_SCHEMA (( 'CONFIG_CONTROL_DESIGN' ));
ENDSEC;

DATA;
#1 = ORIENTED_EDGE ( 'NONE', *, *, #60, .T. ) ;
#2 = DIRECTION ( 'NONE',  ( 1.000000000000000000, 0.0000000000000000000, 0.0000000000000000000 ) ) ;
#3 = CC_DESIGN_PERSON_AND_ORGANIZATION_ASSIGNMENT ( #103, #9, ( #153 ) ) ;
#4 = PERSON_AND_ORGANIZATION_ROLE ( 'design_owner' ) ;
#5 = PRODUCT_DEFINITION_SHAPE ( 'NONE', 'NONE',  #107 ) ;
#6 = CARTESIAN_POINT ( 'NONE',  ( 0.0000000000000000000, 0.0000000000000000000, 5.000000000000000000 ) ) ;
#7 = CARTESIAN_POINT ( 'NONE',  ( 0.0000000000000000000, 0.0000000000000000000, 0.0000000000000000000 ) ) ;
#8 = AXIS2_PLACEMENT_3D ( 'NONE', #6, #58, #154 ) ;
#9 = PERSON_AND_ORGANIZATION_ROLE ( 'creator' ) ;
#10 = ORIENTED_EDGE ( 'NONE', *, *, #80, .F. ) ;
#11 = FACE_OUTER_BOUND ( 'NONE', #70, .T. ) ;
#12 = ORIENTED_EDGE ( 'NONE', *, *, #51, .T. ) ;
#13 = SECURITY_CLASSIFICATION_LEVEL ( 'unclassified' ) ;
#14 = ADVANCED_FACE ( 'NONE', ( #39 ), #173, .T. ) ;
#15 = COORDINATED_UNIVERSAL_TIME_OFFSET ( 5, 0, .BEHIND. ) ;
#16 = APPROVAL_DATE_TIME ( #19, #53 ) ;
#17 = COORDINATED_UNIVERSAL_TIME_OFFSET ( 5, 0, .BEHIND. ) ;
#18 = CC_DESIGN_PERSON_AND_ORGANIZATION_ASSIGNMENT ( #93, #171, ( #153 ) ) ;
#19 = DATE_AND_TIME ( #92, #167 ) ;
#20 = APPLICATION_CONTEXT ( 'configuration controlled 3d designs of mechanical parts and assemblies' ) ;
#21 = PERSON_AND_ORGANIZATION ( #86, #68 ) ;
#22 = CLOSED_SHELL ( 'NONE', ( #125, #14, #109, #54 ) ) ;
#23 = MANIFOLD_SOLID_BREP ( 'Extrude1', #22 ) ;
#24 = FACE_OUTER_BOUND ( 'NONE', #168, .T. ) ;
#25 = APPROVAL_DATE_TIME ( #78, #119 ) ;
#26 = SECURITY_CLASSIFICATION ( '', '', #13 ) ;
#27 = CARTESIAN_POINT ( 'NONE',  ( 0.0000000000000000000, 0.0000000000000000000, 0.0000000000000000000 ) ) ;
#28 = AXIS2_PLACEMENT_3D ( 'NONE', #27, #147, #72 ) ;
#29 = LINE ( 'NONE', #47, #137 ) ;
#30 = DIRECTION ( 'NONE',  ( 0.0000000000000000000, 0.0000000000000000000, 1.000000000000000000 ) ) ;
#31 = VERTEX_POINT ( 'NONE', #148 ) ;
#32 = DATE_AND_TIME ( #141, #132 ) ;
#33 = APPLICATION_PROTOCOL_DEFINITION ( 'international standard', 'config_control_design', 1994, #100 ) ;
#34 = CIRCLE ( 'NONE', #8, 25.00000000000000000 ) ;
#35 = ADVANCED_BREP_SHAPE_REPRESENTATION ( 'Web Model 84458_47840', ( #23, #90 ), #57 ) ;
#36 = ORIENTED_EDGE ( 'NONE', *, *, #113, .F. ) ;
#37 = CC_DESIGN_PERSON_AND_ORGANIZATION_ASSIGNMENT ( #121, #91, ( #26 ) ) ;
#38 = PLANE ( 'NONE',  #44 ) ;
#39 = FACE_OUTER_BOUND ( 'NONE', #73, .T. ) ;
#40 = CALENDAR_DATE ( 2017, 3, 4 ) ;
#41 = ORIENTED_EDGE ( 'NONE', *, *, #80, .T. ) ;
#42 = CARTESIAN_POINT ( 'NONE',  ( 25.00000000000000000, 3.061616997868383000E-015, 0.0000000000000000000 ) ) ;
#43 = APPROVAL_ROLE ( '' ) ;
#44 = AXIS2_PLACEMENT_3D ( 'NONE', #130, #95, #77 ) ;
#45 = VERTEX_POINT ( 'NONE', #42 ) ;
#46 = APPROVAL_PERSON_ORGANIZATION ( #140, #161, #43 ) ;
#47 = CARTESIAN_POINT ( 'NONE',  ( 25.00000000000000000, 3.061616997868383000E-015, 5.000000000000000000 ) ) ;
#48 = CC_DESIGN_DATE_AND_TIME_ASSIGNMENT ( #32, #97, ( #26 ) ) ;
#49 = CARTESIAN_POINT ( 'NONE',  ( -25.00000000000000000, 0.0000000000000000000, 5.000000000000000000 ) ) ;
#50 = CARTESIAN_POINT ( 'NONE',  ( 0.0000000000000000000, 0.0000000000000000000, 5.000000000000000000 ) ) ;
#51 = EDGE_CURVE ( 'NONE', #118, #31, #61, .T. ) ;
#52 = APPROVAL_STATUS ( 'not_yet_approved' ) ;
#53 = APPROVAL ( #110, 'UNSPECIFIED' ) ;
#54 = ADVANCED_FACE ( 'NONE', ( #11 ), #105, .F. ) ;
#55 = LOCAL_TIME ( 12, 39, 26.00000000000000000, #17 ) ;
#56 = PERSON_AND_ORGANIZATION_ROLE ( 'creator' ) ;
#57 =( GEOMETRIC_REPRESENTATION_CONTEXT ( 3 ) GLOBAL_UNCERTAINTY_ASSIGNED_CONTEXT ( ( #129 ) ) GLOBAL_UNIT_ASSIGNED_CONTEXT ( ( #133, #112, #116 ) ) REPRESENTATION_CONTEXT ( 'NONE', 'WORKASPACE' ) );
#58 = DIRECTION ( 'NONE',  ( 0.0000000000000000000, 0.0000000000000000000, 1.000000000000000000 ) ) ;
#59 = CARTESIAN_POINT ( 'NONE',  ( 0.0000000000000000000, 0.0000000000000000000, 5.000000000000000000 ) ) ;
#60 = EDGE_CURVE ( 'NONE', #108, #118, #159, .T. ) ;
#61 = LINE ( 'NONE', #49, #126 ) ;
#62 = CC_DESIGN_APPROVAL ( #53, ( #26 ) ) ;
#63 = PRODUCT ( 'Web Model 84458_47840', 'Web Model 84458_47840', '', ( #102 ) ) ;
#64 = AXIS2_PLACEMENT_3D ( 'NONE', #155, #131, #127 ) ;
#65 = DIRECTION ( 'NONE',  ( 0.0000000000000000000, 0.0000000000000000000, 1.000000000000000000 ) ) ;
#66 = ORIENTED_EDGE ( 'NONE', *, *, #101, .T. ) ;
#67 = CIRCLE ( 'NONE', #172, 25.00000000000000000 ) ;
#68 = ORGANIZATION ( 'UNSPECIFIED', 'UNSPECIFIED', '' ) ;
#69 = CYLINDRICAL_SURFACE ( 'NONE', #64, 25.00000000000000000 ) ;
#70 = EDGE_LOOP ( 'NONE', ( #36, #10 ) ) ;
#71 = CC_DESIGN_SECURITY_CLASSIFICATION ( #26, ( #153 ) ) ;
#72 = DIRECTION ( 'NONE',  ( 1.000000000000000000, 0.0000000000000000000, 0.0000000000000000000 ) ) ;
#73 = EDGE_LOOP ( 'NONE', ( #111, #115, #12, #144 ) ) ;
#74 = ORIENTED_EDGE ( 'NONE', *, *, #60, .F. ) ;
#75 = ORIENTED_EDGE ( 'NONE', *, *, #122, .T. ) ;
#76 = PRODUCT_RELATED_PRODUCT_CATEGORY ( 'detail', '', ( #63 ) ) ;
#77 = DIRECTION ( 'NONE',  ( 1.000000000000000000, 0.0000000000000000000, -0.0000000000000000000 ) ) ;
#78 = DATE_AND_TIME ( #40, #160 ) ;
#79 = CARTESIAN_POINT ( 'NONE',  ( 25.00000000000000000, 3.061616997868383000E-015, 5.000000000000000000 ) ) ;
#80 = EDGE_CURVE ( 'NONE', #45, #31, #67, .T. ) ;
#81 = DATE_AND_TIME ( #120, #123 ) ;
#82 = APPROVAL_DATE_TIME ( #81, #161 ) ;
#83 = DIRECTION ( 'NONE',  ( 1.000000000000000000, 0.0000000000000000000, 0.0000000000000000000 ) ) ;
#84 = DESIGN_CONTEXT ( 'detailed design', #100, 'design' ) ;
#85 = DIRECTION ( 'NONE',  ( 0.0000000000000000000, 0.0000000000000000000, 1.000000000000000000 ) ) ;
#86 = PERSON ( 'UNSPECIFIED', 'UNSPECIFIED', 'UNSPECIFIED', ('UNSPECIFIED'), ('UNSPECIFIED'), ('UNSPECIFIED') ) ;
#87 = EDGE_LOOP ( 'NONE', ( #74, #75, #41, #175 ) ) ;
#88 = COORDINATED_UNIVERSAL_TIME_OFFSET ( 5, 0, .BEHIND. ) ;
#89 = APPROVAL_ROLE ( '' ) ;
#90 = AXIS2_PLACEMENT_3D ( 'NONE', #96, #30, #149 ) ;
#91 = PERSON_AND_ORGANIZATION_ROLE ( 'classification_officer' ) ;
#92 = CALENDAR_DATE ( 2017, 3, 4 ) ;
#93 = PERSON_AND_ORGANIZATION ( #86, #68 ) ;
#94 = CARTESIAN_POINT ( 'NONE',  ( -25.00000000000000000, 0.0000000000000000000, 5.000000000000000000 ) ) ;
#95 = DIRECTION ( 'NONE',  ( 0.0000000000000000000, 0.0000000000000000000, 1.000000000000000000 ) ) ;
#96 = CARTESIAN_POINT ( 'NONE',  ( 0.0000000000000000000, 0.0000000000000000000, 0.0000000000000000000 ) ) ;
#97 = DATE_TIME_ROLE ( 'classification_date' ) ;
#98 = CALENDAR_DATE ( 2017, 3, 4 ) ;
#99 = CC_DESIGN_PERSON_AND_ORGANIZATION_ASSIGNMENT ( #21, #4, ( #63 ) ) ;
#100 = APPLICATION_CONTEXT ( 'configuration controlled 3d designs of mechanical parts and assemblies' ) ;
#101 = EDGE_CURVE ( 'NONE', #118, #108, #34, .T. ) ;
#102 = MECHANICAL_CONTEXT ( 'NONE', #20, 'mechanical' ) ;
#103 = PERSON_AND_ORGANIZATION ( #86, #68 ) ;
#104 = APPROVAL_PERSON_ORGANIZATION ( #162, #119, #142 ) ;
#105 = PLANE ( 'NONE',  #164 ) ;
#106 = DIRECTION ( 'NONE',  ( 0.0000000000000000000, 0.0000000000000000000, 1.000000000000000000 ) ) ;
#107 = PRODUCT_DEFINITION ( 'UNKNOWN', '', #153, #84 ) ;
#108 = VERTEX_POINT ( 'NONE', #79 ) ;
#109 = ADVANCED_FACE ( 'NONE', ( #24 ), #38, .T. ) ;
#110 = APPROVAL_STATUS ( 'not_yet_approved' ) ;
#111 = ORIENTED_EDGE ( 'NONE', *, *, #122, .F. ) ;
#112 =( NAMED_UNIT ( * ) PLANE_ANGLE_UNIT ( ) SI_UNIT ( $, .RADIAN. ) );
#113 = EDGE_CURVE ( 'NONE', #31, #45, #151, .T. ) ;
#114 = FACE_OUTER_BOUND ( 'NONE', #87, .T. ) ;
#115 = ORIENTED_EDGE ( 'NONE', *, *, #101, .F. ) ;
#116 =( NAMED_UNIT ( * ) SI_UNIT ( $, .STERADIAN. ) SOLID_ANGLE_UNIT ( ) );
#117 = SHAPE_DEFINITION_REPRESENTATION ( #5, #35 ) ;
#118 = VERTEX_POINT ( 'NONE', #94 ) ;
#119 = APPROVAL ( #52, 'UNSPECIFIED' ) ;
#120 = CALENDAR_DATE ( 2017, 3, 4 ) ;
#121 = PERSON_AND_ORGANIZATION ( #86, #68 ) ;
#122 = EDGE_CURVE ( 'NONE', #108, #45, #29, .T. ) ;
#123 = LOCAL_TIME ( 12, 39, 26.00000000000000000, #88 ) ;
#124 = APPROVAL_STATUS ( 'not_yet_approved' ) ;
#125 = ADVANCED_FACE ( 'NONE', ( #114 ), #69, .T. ) ;
#126 = VECTOR ( 'NONE', #158, 1000.000000000000000 ) ;
#127 = DIRECTION ( 'NONE',  ( -1.000000000000000000, 0.0000000000000000000, 0.0000000000000000000 ) ) ;
#128 = CC_DESIGN_APPROVAL ( #119, ( #107 ) ) ;
#129 = UNCERTAINTY_MEASURE_WITH_UNIT (LENGTH_MEASURE( 1.000000000000000100E-005 ), #133, 'distance_accuracy_value', 'NONE');
#130 = CARTESIAN_POINT ( 'NONE',  ( 0.0000000000000000000, 0.0000000000000000000, 5.000000000000000000 ) ) ;
#131 = DIRECTION ( 'NONE',  ( -0.0000000000000000000, -0.0000000000000000000, -1.000000000000000000 ) ) ;
#132 = LOCAL_TIME ( 12, 39, 26.00000000000000000, #165 ) ;
#133 =( LENGTH_UNIT ( ) NAMED_UNIT ( * ) SI_UNIT ( .MILLI., .METRE. ) );
#134 = CC_DESIGN_PERSON_AND_ORGANIZATION_ASSIGNMENT ( #145, #56, ( #107 ) ) ;
#135 = COORDINATED_UNIVERSAL_TIME_OFFSET ( 5, 0, .BEHIND. ) ;
#136 = APPLICATION_PROTOCOL_DEFINITION ( 'international standard', 'config_control_design', 1994, #20 ) ;
#137 = VECTOR ( 'NONE', #139, 1000.000000000000000 ) ;
#138 = AXIS2_PLACEMENT_3D ( 'NONE', #50, #85, #2 ) ;
#139 = DIRECTION ( 'NONE',  ( -0.0000000000000000000, -0.0000000000000000000, -1.000000000000000000 ) ) ;
#140 = PERSON_AND_ORGANIZATION ( #86, #68 ) ;
#141 = CALENDAR_DATE ( 2017, 3, 4 ) ;
#142 = APPROVAL_ROLE ( '' ) ;
#143 = CARTESIAN_POINT ( 'NONE',  ( 0.0000000000000000000, 0.0000000000000000000, 0.0000000000000000000 ) ) ;
#144 = ORIENTED_EDGE ( 'NONE', *, *, #113, .T. ) ;
#145 = PERSON_AND_ORGANIZATION ( #86, #68 ) ;
#146 = CC_DESIGN_DATE_AND_TIME_ASSIGNMENT ( #157, #150, ( #107 ) ) ;
#147 = DIRECTION ( 'NONE',  ( 0.0000000000000000000, 0.0000000000000000000, 1.000000000000000000 ) ) ;
#148 = CARTESIAN_POINT ( 'NONE',  ( -25.00000000000000000, 0.0000000000000000000, 0.0000000000000000000 ) ) ;
#149 = DIRECTION ( 'NONE',  ( 1.000000000000000000, 0.0000000000000000000, 0.0000000000000000000 ) ) ;
#150 = DATE_TIME_ROLE ( 'creation_date' ) ;
#151 = CIRCLE ( 'NONE', #28, 25.00000000000000000 ) ;
#152 = PERSON_AND_ORGANIZATION ( #86, #68 ) ;
#153 = PRODUCT_DEFINITION_FORMATION_WITH_SPECIFIED_SOURCE ( 'ANY', '', #63, .NOT_KNOWN. ) ;
#154 = DIRECTION ( 'NONE',  ( 1.000000000000000000, 0.0000000000000000000, 0.0000000000000000000 ) ) ;
#155 = CARTESIAN_POINT ( 'NONE',  ( 0.0000000000000000000, 0.0000000000000000000, 5.000000000000000000 ) ) ;
#156 = AXIS2_PLACEMENT_3D ( 'NONE', #59, #166, #169 ) ;
#157 = DATE_AND_TIME ( #98, #55 ) ;
#158 = DIRECTION ( 'NONE',  ( -0.0000000000000000000, -0.0000000000000000000, -1.000000000000000000 ) ) ;
#159 = CIRCLE ( 'NONE', #138, 25.00000000000000000 ) ;
#160 = LOCAL_TIME ( 12, 39, 26.00000000000000000, #15 ) ;
#161 = APPROVAL ( #124, 'UNSPECIFIED' ) ;
#162 = PERSON_AND_ORGANIZATION ( #86, #68 ) ;
#163 = APPROVAL_PERSON_ORGANIZATION ( #152, #53, #89 ) ;
#164 = AXIS2_PLACEMENT_3D ( 'NONE', #7, #65, #174 ) ;
#165 = COORDINATED_UNIVERSAL_TIME_OFFSET ( 5, 0, .BEHIND. ) ;
#166 = DIRECTION ( 'NONE',  ( -0.0000000000000000000, -0.0000000000000000000, -1.000000000000000000 ) ) ;
#167 = LOCAL_TIME ( 12, 39, 26.00000000000000000, #135 ) ;
#168 = EDGE_LOOP ( 'NONE', ( #66, #1 ) ) ;
#169 = DIRECTION ( 'NONE',  ( -1.000000000000000000, 0.0000000000000000000, 0.0000000000000000000 ) ) ;
#170 = CC_DESIGN_APPROVAL ( #161, ( #153 ) ) ;
#171 = PERSON_AND_ORGANIZATION_ROLE ( 'design_supplier' ) ;
#172 = AXIS2_PLACEMENT_3D ( 'NONE', #143, #106, #83 ) ;
#173 = CYLINDRICAL_SURFACE ( 'NONE', #156, 25.00000000000000000 ) ;
#174 = DIRECTION ( 'NONE',  ( 1.000000000000000000, 0.0000000000000000000, -0.0000000000000000000 ) ) ;
#175 = ORIENTED_EDGE ( 'NONE', *, *, #51, .F. ) ;
ENDSEC;
END-ISO-10303-21;
