ISO-10303-21;
HEADER;
FILE_DESCRIPTION (( 'STEP AP203' ),
    '1' );
FILE_NAME ('Web Model 68517.STEP',
    '2017-02-01T13:26:05',
    ( '' ),
    ( '' ),
    'SwSTEP 2.0',
    'SolidWorks 2016',
    '' );
FILE_SCHEMA (( 'CONFIG_CONTROL_DESIGN' ));
ENDSEC;

DATA;
#1 = APPROVAL_ROLE ( '' ) ;
#2 = LOCAL_TIME ( 8, 26, 5.000000000000000000, #172 ) ;
#3 = ORIENTED_EDGE ( 'NONE', *, *, #28, .T. ) ;
#4 = PERSON_AND_ORGANIZATION ( #142, #107 ) ;
#5 = CIRCLE ( 'NONE', #56, 12.50000000000000000 ) ;
#6 = CARTESIAN_POINT ( 'NONE',  ( 0.0000000000000000000, 0.0000000000000000000, 0.0000000000000000000 ) ) ;
#7 = PRODUCT_DEFINITION_SHAPE ( 'NONE', 'NONE',  #85 ) ;
#8 = CC_DESIGN_SECURITY_CLASSIFICATION ( #154, ( #102 ) ) ;
#9 = ORIENTED_EDGE ( 'NONE', *, *, #115, .T. ) ;
#10 = CARTESIAN_POINT ( 'NONE',  ( 12.50000000000000000, 1.530808498934191500E-015, 1.000000000000000000 ) ) ;
#11 = PERSON_AND_ORGANIZATION ( #142, #107 ) ;
#12 = DIRECTION ( 'NONE',  ( -0.0000000000000000000, -0.0000000000000000000, -1.000000000000000000 ) ) ;
#13 =( LENGTH_UNIT ( ) NAMED_UNIT ( * ) SI_UNIT ( .MILLI., .METRE. ) );
#14 = CALENDAR_DATE ( 2017, 1, 2 ) ;
#15 = DIRECTION ( 'NONE',  ( 0.0000000000000000000, 0.0000000000000000000, 1.000000000000000000 ) ) ;
#16 = DIRECTION ( 'NONE',  ( 1.000000000000000000, 0.0000000000000000000, -0.0000000000000000000 ) ) ;
#17 = VERTEX_POINT ( 'NONE', #109 ) ;
#18 = COORDINATED_UNIVERSAL_TIME_OFFSET ( 5, 0, .BEHIND. ) ;
#19 = EDGE_CURVE ( 'NONE', #160, #81, #50, .T. ) ;
#20 = CC_DESIGN_APPROVAL ( #152, ( #154 ) ) ;
#21 = CARTESIAN_POINT ( 'NONE',  ( 0.0000000000000000000, 0.0000000000000000000, 0.0000000000000000000 ) ) ;
#22 = FACE_OUTER_BOUND ( 'NONE', #108, .T. ) ;
#23 = APPROVAL_ROLE ( '' ) ;
#24 = LOCAL_TIME ( 8, 26, 5.000000000000000000, #135 ) ;
#25 = PERSON_AND_ORGANIZATION ( #142, #107 ) ;
#26 = FACE_OUTER_BOUND ( 'NONE', #73, .T. ) ;
#27 = APPROVAL_PERSON_ORGANIZATION ( #29, #152, #23 ) ;
#28 = EDGE_CURVE ( 'NONE', #81, #160, #5, .T. ) ;
#29 = PERSON_AND_ORGANIZATION ( #142, #107 ) ;
#30 = DIRECTION ( 'NONE',  ( -0.0000000000000000000, -0.0000000000000000000, -1.000000000000000000 ) ) ;
#31 = DIRECTION ( 'NONE',  ( -0.0000000000000000000, -0.0000000000000000000, -1.000000000000000000 ) ) ;
#32 = VECTOR ( 'NONE', #30, 1000.000000000000000 ) ;
#33 = PERSON_AND_ORGANIZATION_ROLE ( 'classification_officer' ) ;
#34 =( NAMED_UNIT ( * ) PLANE_ANGLE_UNIT ( ) SI_UNIT ( $, .RADIAN. ) );
#35 = CC_DESIGN_PERSON_AND_ORGANIZATION_ASSIGNMENT ( #148, #64, ( #85 ) ) ;
#36 = CYLINDRICAL_SURFACE ( 'NONE', #49, 12.50000000000000000 ) ;
#37 = AXIS2_PLACEMENT_3D ( 'NONE', #6, #72, #86 ) ;
#38 = EDGE_LOOP ( 'NONE', ( #153, #84, #94, #3 ) ) ;
#39 = MECHANICAL_CONTEXT ( 'NONE', #40, 'mechanical' ) ;
#40 = APPLICATION_CONTEXT ( 'configuration controlled 3d designs of mechanical parts and assemblies' ) ;
#41 = CALENDAR_DATE ( 2017, 1, 2 ) ;
#42 = SHAPE_DEFINITION_REPRESENTATION ( #7, #128 ) ;
#43 =( GEOMETRIC_REPRESENTATION_CONTEXT ( 3 ) GLOBAL_UNCERTAINTY_ASSIGNED_CONTEXT ( ( #59 ) ) GLOBAL_UNIT_ASSIGNED_CONTEXT ( ( #13, #34, #103 ) ) REPRESENTATION_CONTEXT ( 'NONE', 'WORKASPACE' ) );
#44 = FACE_OUTER_BOUND ( 'NONE', #65, .T. ) ;
#45 = AXIS2_PLACEMENT_3D ( 'NONE', #113, #99, #164 ) ;
#46 = APPROVAL_DATE_TIME ( #122, #111 ) ;
#47 = ORIENTED_EDGE ( 'NONE', *, *, #19, .T. ) ;
#48 = APPROVAL_STATUS ( 'not_yet_approved' ) ;
#49 = AXIS2_PLACEMENT_3D ( 'NONE', #118, #78, #175 ) ;
#50 = CIRCLE ( 'NONE', #37, 12.50000000000000000 ) ;
#51 = FACE_OUTER_BOUND ( 'NONE', #38, .T. ) ;
#52 = CC_DESIGN_PERSON_AND_ORGANIZATION_ASSIGNMENT ( #25, #149, ( #57 ) ) ;
#53 = DIRECTION ( 'NONE',  ( 1.000000000000000000, 0.0000000000000000000, 0.0000000000000000000 ) ) ;
#54 = LINE ( 'NONE', #79, #170 ) ;
#55 = DATE_AND_TIME ( #88, #24 ) ;
#56 = AXIS2_PLACEMENT_3D ( 'NONE', #21, #174, #97 ) ;
#57 = PRODUCT ( 'Web Model 68517', 'Web Model 68517', '', ( #39 ) ) ;
#58 = CYLINDRICAL_SURFACE ( 'NONE', #82, 12.50000000000000000 ) ;
#59 = UNCERTAINTY_MEASURE_WITH_UNIT (LENGTH_MEASURE( 1.000000000000000100E-005 ), #13, 'distance_accuracy_value', 'NONE');
#60 = DIRECTION ( 'NONE',  ( -1.000000000000000000, 0.0000000000000000000, 0.0000000000000000000 ) ) ;
#61 = DIRECTION ( 'NONE',  ( 0.0000000000000000000, 0.0000000000000000000, 1.000000000000000000 ) ) ;
#62 = COORDINATED_UNIVERSAL_TIME_OFFSET ( 5, 0, .BEHIND. ) ;
#63 = APPLICATION_CONTEXT ( 'configuration controlled 3d designs of mechanical parts and assemblies' ) ;
#64 = PERSON_AND_ORGANIZATION_ROLE ( 'creator' ) ;
#65 = EDGE_LOOP ( 'NONE', ( #130, #137 ) ) ;
#66 = APPLICATION_PROTOCOL_DEFINITION ( 'international standard', 'config_control_design', 1994, #63 ) ;
#67 = CC_DESIGN_APPROVAL ( #111, ( #102 ) ) ;
#68 = APPROVAL_DATE_TIME ( #131, #93 ) ;
#69 = ADVANCED_FACE ( 'NONE', ( #51 ), #58, .T. ) ;
#70 = LINE ( 'NONE', #98, #32 ) ;
#71 = PLANE ( 'NONE',  #146 ) ;
#72 = DIRECTION ( 'NONE',  ( 0.0000000000000000000, 0.0000000000000000000, 1.000000000000000000 ) ) ;
#73 = EDGE_LOOP ( 'NONE', ( #120, #156 ) ) ;
#74 = SECURITY_CLASSIFICATION_LEVEL ( 'unclassified' ) ;
#75 = PERSON_AND_ORGANIZATION ( #142, #107 ) ;
#76 = CC_DESIGN_DATE_AND_TIME_ASSIGNMENT ( #100, #133, ( #154 ) ) ;
#77 = APPROVAL_ROLE ( '' ) ;
#78 = DIRECTION ( 'NONE',  ( -0.0000000000000000000, -0.0000000000000000000, -1.000000000000000000 ) ) ;
#79 = CARTESIAN_POINT ( 'NONE',  ( -12.50000000000000000, 0.0000000000000000000, 1.000000000000000000 ) ) ;
#80 = CALENDAR_DATE ( 2017, 1, 2 ) ;
#81 = VERTEX_POINT ( 'NONE', #159 ) ;
#82 = AXIS2_PLACEMENT_3D ( 'NONE', #132, #31, #60 ) ;
#83 = CIRCLE ( 'NONE', #105, 12.50000000000000000 ) ;
#84 = ORIENTED_EDGE ( 'NONE', *, *, #151, .F. ) ;
#85 = PRODUCT_DEFINITION ( 'UNKNOWN', '', #102, #166 ) ;
#86 = DIRECTION ( 'NONE',  ( 1.000000000000000000, 0.0000000000000000000, 0.0000000000000000000 ) ) ;
#87 = APPROVAL_STATUS ( 'not_yet_approved' ) ;
#88 = CALENDAR_DATE ( 2017, 1, 2 ) ;
#89 = LOCAL_TIME ( 8, 26, 5.000000000000000000, #62 ) ;
#90 = CARTESIAN_POINT ( 'NONE',  ( 0.0000000000000000000, 0.0000000000000000000, 1.000000000000000000 ) ) ;
#91 = PERSON_AND_ORGANIZATION_ROLE ( 'design_supplier' ) ;
#92 = APPROVAL_PERSON_ORGANIZATION ( #139, #93, #77 ) ;
#93 = APPROVAL ( #147, 'UNSPECIFIED' ) ;
#94 = ORIENTED_EDGE ( 'NONE', *, *, #144, .T. ) ;
#95 = PRODUCT_RELATED_PRODUCT_CATEGORY ( 'detail', '', ( #57 ) ) ;
#96 = AXIS2_PLACEMENT_3D ( 'NONE', #161, #127, #158 ) ;
#97 = DIRECTION ( 'NONE',  ( 1.000000000000000000, 0.0000000000000000000, 0.0000000000000000000 ) ) ;
#98 = CARTESIAN_POINT ( 'NONE',  ( 12.50000000000000000, 1.530808498934191500E-015, 1.000000000000000000 ) ) ;
#99 = DIRECTION ( 'NONE',  ( 0.0000000000000000000, 0.0000000000000000000, 1.000000000000000000 ) ) ;
#100 = DATE_AND_TIME ( #143, #104 ) ;
#101 = CLOSED_SHELL ( 'NONE', ( #171, #69, #121, #141 ) ) ;
#102 = PRODUCT_DEFINITION_FORMATION_WITH_SPECIFIED_SOURCE ( 'ANY', '', #57, .NOT_KNOWN. ) ;
#103 =( NAMED_UNIT ( * ) SI_UNIT ( $, .STERADIAN. ) SOLID_ANGLE_UNIT ( ) );
#104 = LOCAL_TIME ( 8, 26, 5.000000000000000000, #18 ) ;
#105 = AXIS2_PLACEMENT_3D ( 'NONE', #90, #134, #53 ) ;
#106 = VERTEX_POINT ( 'NONE', #10 ) ;
#107 = ORGANIZATION ( 'UNSPECIFIED', 'UNSPECIFIED', '' ) ;
#108 = EDGE_LOOP ( 'NONE', ( #116, #9, #47, #110 ) ) ;
#109 = CARTESIAN_POINT ( 'NONE',  ( -12.50000000000000000, 0.0000000000000000000, 1.000000000000000000 ) ) ;
#110 = ORIENTED_EDGE ( 'NONE', *, *, #144, .F. ) ;
#111 = APPROVAL ( #87, 'UNSPECIFIED' ) ;
#112 = MANIFOLD_SOLID_BREP ( 'Extrude1', #101 ) ;
#113 = CARTESIAN_POINT ( 'NONE',  ( 0.0000000000000000000, 0.0000000000000000000, 0.0000000000000000000 ) ) ;
#114 = APPROVAL_PERSON_ORGANIZATION ( #75, #111, #1 ) ;
#115 = EDGE_CURVE ( 'NONE', #106, #160, #70, .T. ) ;
#116 = ORIENTED_EDGE ( 'NONE', *, *, #125, .F. ) ;
#117 = CARTESIAN_POINT ( 'NONE',  ( 12.50000000000000000, 1.530808498934191500E-015, 0.0000000000000000000 ) ) ;
#118 = CARTESIAN_POINT ( 'NONE',  ( 0.0000000000000000000, 0.0000000000000000000, 1.000000000000000000 ) ) ;
#119 = CC_DESIGN_PERSON_AND_ORGANIZATION_ASSIGNMENT ( #11, #91, ( #102 ) ) ;
#120 = ORIENTED_EDGE ( 'NONE', *, *, #28, .F. ) ;
#121 = ADVANCED_FACE ( 'NONE', ( #44 ), #129, .T. ) ;
#122 = DATE_AND_TIME ( #80, #165 ) ;
#123 = CC_DESIGN_PERSON_AND_ORGANIZATION_ASSIGNMENT ( #126, #145, ( #102 ) ) ;
#124 = CIRCLE ( 'NONE', #140, 12.50000000000000000 ) ;
#125 = EDGE_CURVE ( 'NONE', #106, #17, #83, .T. ) ;
#126 = PERSON_AND_ORGANIZATION ( #142, #107 ) ;
#127 = DIRECTION ( 'NONE',  ( 0.0000000000000000000, 0.0000000000000000000, 1.000000000000000000 ) ) ;
#128 = ADVANCED_BREP_SHAPE_REPRESENTATION ( 'Web Model 68517', ( #112, #45 ), #43 ) ;
#129 = PLANE ( 'NONE',  #96 ) ;
#130 = ORIENTED_EDGE ( 'NONE', *, *, #151, .T. ) ;
#131 = DATE_AND_TIME ( #14, #2 ) ;
#132 = CARTESIAN_POINT ( 'NONE',  ( 0.0000000000000000000, 0.0000000000000000000, 1.000000000000000000 ) ) ;
#133 = DATE_TIME_ROLE ( 'classification_date' ) ;
#134 = DIRECTION ( 'NONE',  ( 0.0000000000000000000, 0.0000000000000000000, 1.000000000000000000 ) ) ;
#135 = COORDINATED_UNIVERSAL_TIME_OFFSET ( 5, 0, .BEHIND. ) ;
#136 = CARTESIAN_POINT ( 'NONE',  ( 0.0000000000000000000, 0.0000000000000000000, 1.000000000000000000 ) ) ;
#137 = ORIENTED_EDGE ( 'NONE', *, *, #125, .T. ) ;
#138 = APPLICATION_PROTOCOL_DEFINITION ( 'international standard', 'config_control_design', 1994, #40 ) ;
#139 = PERSON_AND_ORGANIZATION ( #142, #107 ) ;
#140 = AXIS2_PLACEMENT_3D ( 'NONE', #136, #15, #162 ) ;
#141 = ADVANCED_FACE ( 'NONE', ( #26 ), #71, .F. ) ;
#142 = PERSON ( 'UNSPECIFIED', 'UNSPECIFIED', 'UNSPECIFIED', ('UNSPECIFIED'), ('UNSPECIFIED'), ('UNSPECIFIED') ) ;
#143 = CALENDAR_DATE ( 2017, 1, 2 ) ;
#144 = EDGE_CURVE ( 'NONE', #17, #81, #54, .T. ) ;
#145 = PERSON_AND_ORGANIZATION_ROLE ( 'creator' ) ;
#146 = AXIS2_PLACEMENT_3D ( 'NONE', #173, #61, #16 ) ;
#147 = APPROVAL_STATUS ( 'not_yet_approved' ) ;
#148 = PERSON_AND_ORGANIZATION ( #142, #107 ) ;
#149 = PERSON_AND_ORGANIZATION_ROLE ( 'design_owner' ) ;
#150 = CC_DESIGN_DATE_AND_TIME_ASSIGNMENT ( #167, #169, ( #85 ) ) ;
#151 = EDGE_CURVE ( 'NONE', #17, #106, #124, .T. ) ;
#152 = APPROVAL ( #48, 'UNSPECIFIED' ) ;
#153 = ORIENTED_EDGE ( 'NONE', *, *, #115, .F. ) ;
#154 = SECURITY_CLASSIFICATION ( '', '', #74 ) ;
#155 = COORDINATED_UNIVERSAL_TIME_OFFSET ( 5, 0, .BEHIND. ) ;
#156 = ORIENTED_EDGE ( 'NONE', *, *, #19, .F. ) ;
#157 = APPROVAL_DATE_TIME ( #55, #152 ) ;
#158 = DIRECTION ( 'NONE',  ( 1.000000000000000000, 0.0000000000000000000, -0.0000000000000000000 ) ) ;
#159 = CARTESIAN_POINT ( 'NONE',  ( -12.50000000000000000, 0.0000000000000000000, 0.0000000000000000000 ) ) ;
#160 = VERTEX_POINT ( 'NONE', #117 ) ;
#161 = CARTESIAN_POINT ( 'NONE',  ( 0.0000000000000000000, 0.0000000000000000000, 1.000000000000000000 ) ) ;
#162 = DIRECTION ( 'NONE',  ( 1.000000000000000000, 0.0000000000000000000, 0.0000000000000000000 ) ) ;
#163 = CC_DESIGN_APPROVAL ( #93, ( #85 ) ) ;
#164 = DIRECTION ( 'NONE',  ( 1.000000000000000000, 0.0000000000000000000, 0.0000000000000000000 ) ) ;
#165 = LOCAL_TIME ( 8, 26, 5.000000000000000000, #155 ) ;
#166 = DESIGN_CONTEXT ( 'detailed design', #63, 'design' ) ;
#167 = DATE_AND_TIME ( #41, #89 ) ;
#168 = CC_DESIGN_PERSON_AND_ORGANIZATION_ASSIGNMENT ( #4, #33, ( #154 ) ) ;
#169 = DATE_TIME_ROLE ( 'creation_date' ) ;
#170 = VECTOR ( 'NONE', #12, 1000.000000000000000 ) ;
#171 = ADVANCED_FACE ( 'NONE', ( #22 ), #36, .T. ) ;
#172 = COORDINATED_UNIVERSAL_TIME_OFFSET ( 5, 0, .BEHIND. ) ;
#173 = CARTESIAN_POINT ( 'NONE',  ( 0.0000000000000000000, 0.0000000000000000000, 0.0000000000000000000 ) ) ;
#174 = DIRECTION ( 'NONE',  ( 0.0000000000000000000, 0.0000000000000000000, 1.000000000000000000 ) ) ;
#175 = DIRECTION ( 'NONE',  ( -1.000000000000000000, 0.0000000000000000000, 0.0000000000000000000 ) ) ;
ENDSEC;
END-ISO-10303-21;
