ISO-10303-21;
HEADER;
FILE_DESCRIPTION (( 'STEP AP203' ),
    '1' );
FILE_NAME ('Web Model 47231_11928.step',
    '2019-01-07T15:27:02',
    ( '' ),
    ( '' ),
    'SwSTEP 2.0',
    'SolidWorks 2016',
    '' );
FILE_SCHEMA (( 'CONFIG_CONTROL_DESIGN' ));
ENDSEC;

DATA;
#1 = FACE_OUTER_BOUND ( 'NONE', #96, .T. ) ;
#2 = APPROVAL_ROLE ( '' ) ;
#3 = DATE_TIME_ROLE ( 'creation_date' ) ;
#4 = EDGE_CURVE ( 'NONE', #29, #187, #82, .T. ) ;
#5 = VERTEX_POINT ( 'NONE', #101 ) ;
#6 = FACE_OUTER_BOUND ( 'NONE', #214, .T. ) ;
#7 = AXIS2_PLACEMENT_3D ( 'NONE', #132, #146, #125 ) ;
#8 = EDGE_LOOP ( 'NONE', ( #226, #139, #59, #87 ) ) ;
#9 = CALENDAR_DATE ( 2019, 7, 1 ) ;
#10 = AXIS2_PLACEMENT_3D ( 'NONE', #57, #60, #222 ) ;
#11 = VECTOR ( 'NONE', #86, 1000.000000000000000 ) ;
#12 = APPROVAL_PERSON_ORGANIZATION ( #216, #230, #2 ) ;
#13 = CARTESIAN_POINT ( 'NONE',  ( 25.00000000000000000, 25.00000000000000400, 2.000000000000000000 ) ) ;
#14 = VERTEX_POINT ( 'NONE', #176 ) ;
#15 = PERSON_AND_ORGANIZATION ( #217, #168 ) ;
#16 = PLANE ( 'NONE',  #10 ) ;
#17 = CARTESIAN_POINT ( 'NONE',  ( -25.00000000000000400, -25.00000000000000000, 2.000000000000000000 ) ) ;
#18 = ORIENTED_EDGE ( 'NONE', *, *, #92, .T. ) ;
#19 = CARTESIAN_POINT ( 'NONE',  ( 25.00000000000000000, -25.00000000000000000, -2.000000000000000000 ) ) ;
#20 = CARTESIAN_POINT ( 'NONE',  ( -25.00000000000000400, -25.00000000000000000, -2.000000000000000000 ) ) ;
#21 = LINE ( 'NONE', #219, #150 ) ;
#22 = COORDINATED_UNIVERSAL_TIME_OFFSET ( 5, 0, .BEHIND. ) ;
#23 = AXIS2_PLACEMENT_3D ( 'NONE', #233, #108, #179 ) ;
#24 = DIRECTION ( 'NONE',  ( 1.000000000000000000, 0.0000000000000000000, 0.0000000000000000000 ) ) ;
#25 = APPLICATION_CONTEXT ( 'configuration controlled 3d designs of mechanical parts and assemblies' ) ;
#26 = DATE_AND_TIME ( #118, #112 ) ;
#27 = AXIS2_PLACEMENT_3D ( 'NONE', #224, #130, #58 ) ;
#28 = EDGE_LOOP ( 'NONE', ( #191, #157, #77, #165 ) ) ;
#29 = VERTEX_POINT ( 'NONE', #13 ) ;
#30 = PERSON_AND_ORGANIZATION ( #217, #168 ) ;
#31 = APPROVAL ( #65, 'UNSPECIFIED' ) ;
#32 = LINE ( 'NONE', #56, #11 ) ;
#33 = PERSON_AND_ORGANIZATION ( #217, #168 ) ;
#34 = DIRECTION ( 'NONE',  ( -0.0000000000000000000, -0.0000000000000000000, -1.000000000000000000 ) ) ;
#35 = DIRECTION ( 'NONE',  ( 0.0000000000000000000, -0.0000000000000000000, 1.000000000000000000 ) ) ;
#36 = AXIS2_PLACEMENT_3D ( 'NONE', #104, #223, #198 ) ;
#37 = DIRECTION ( 'NONE',  ( -0.0000000000000000000, -0.0000000000000000000, -1.000000000000000000 ) ) ;
#38 = CC_DESIGN_DATE_AND_TIME_ASSIGNMENT ( #136, #3, ( #228 ) ) ;
#39 = PLANE ( 'NONE',  #23 ) ;
#40 = FACE_OUTER_BOUND ( 'NONE', #158, .T. ) ;
#41 = CC_DESIGN_PERSON_AND_ORGANIZATION_ASSIGNMENT ( #30, #135, ( #137 ) ) ;
#42 = LINE ( 'NONE', #147, #129 ) ;
#43 = DIRECTION ( 'NONE',  ( 0.0000000000000000000, 0.0000000000000000000, 1.000000000000000000 ) ) ;
#44 =( LENGTH_UNIT ( ) NAMED_UNIT ( * ) SI_UNIT ( .MILLI., .METRE. ) );
#45 = CALENDAR_DATE ( 2019, 7, 1 ) ;
#46 = PERSON_AND_ORGANIZATION_ROLE ( 'creator' ) ;
#47 = APPLICATION_PROTOCOL_DEFINITION ( 'international standard', 'config_control_design', 1994, #25 ) ;
#48 = EDGE_CURVE ( 'NONE', #173, #126, #120, .T. ) ;
#49 = ORIENTED_EDGE ( 'NONE', *, *, #131, .F. ) ;
#50 = VECTOR ( 'NONE', #91, 1000.000000000000000 ) ;
#51 =( GEOMETRIC_REPRESENTATION_CONTEXT ( 3 ) GLOBAL_UNCERTAINTY_ASSIGNED_CONTEXT ( ( #148 ) ) GLOBAL_UNIT_ASSIGNED_CONTEXT ( ( #44, #183, #186 ) ) REPRESENTATION_CONTEXT ( 'NONE', 'WORKASPACE' ) );
#52 = ORIENTED_EDGE ( 'NONE', *, *, #54, .T. ) ;
#53 = DIRECTION ( 'NONE',  ( -1.000000000000000000, -0.0000000000000000000, -0.0000000000000000000 ) ) ;
#54 = EDGE_CURVE ( 'NONE', #187, #126, #117, .T. ) ;
#55 = FACE_OUTER_BOUND ( 'NONE', #8, .T. ) ;
#56 = CARTESIAN_POINT ( 'NONE',  ( -25.00000000000000400, -25.00000000000000000, 2.000000000000000000 ) ) ;
#57 = CARTESIAN_POINT ( 'NONE',  ( -25.00000000000000400, -25.00000000000000000, 2.000000000000000000 ) ) ;
#58 = DIRECTION ( 'NONE',  ( 0.0000000000000000000, -0.0000000000000000000, -1.000000000000000000 ) ) ;
#59 = ORIENTED_EDGE ( 'NONE', *, *, #151, .F. ) ;
#60 = DIRECTION ( 'NONE',  ( 1.000000000000000000, 0.0000000000000000000, 0.0000000000000000000 ) ) ;
#61 = PRODUCT_DEFINITION_FORMATION_WITH_SPECIFIED_SOURCE ( 'ANY', '', #100, .NOT_KNOWN. ) ;
#62 = APPROVAL_ROLE ( '' ) ;
#63 = ORIENTED_EDGE ( 'NONE', *, *, #107, .F. ) ;
#64 = CC_DESIGN_PERSON_AND_ORGANIZATION_ASSIGNMENT ( #15, #166, ( #100 ) ) ;
#65 = APPROVAL_STATUS ( 'not_yet_approved' ) ;
#66 = CLOSED_SHELL ( 'NONE', ( #141, #180, #103, #72, #193, #133 ) ) ;
#67 = DATE_AND_TIME ( #45, #201 ) ;
#68 = ORIENTED_EDGE ( 'NONE', *, *, #131, .T. ) ;
#69 = CALENDAR_DATE ( 2019, 7, 1 ) ;
#70 = PERSON_AND_ORGANIZATION ( #217, #168 ) ;
#71 = VECTOR ( 'NONE', #162, 1000.000000000000000 ) ;
#72 = ADVANCED_FACE ( 'NONE', ( #93 ), #124, .F. ) ;
#73 = CARTESIAN_POINT ( 'NONE',  ( -25.00000000000000400, -25.00000000000000000, 2.000000000000000000 ) ) ;
#74 = PERSON_AND_ORGANIZATION ( #217, #168 ) ;
#75 = DIRECTION ( 'NONE',  ( -1.000000000000000000, -0.0000000000000000000, -0.0000000000000000000 ) ) ;
#76 = DIRECTION ( 'NONE',  ( 0.0000000000000000000, 1.000000000000000000, 0.0000000000000000000 ) ) ;
#77 = ORIENTED_EDGE ( 'NONE', *, *, #122, .F. ) ;
#78 = COORDINATED_UNIVERSAL_TIME_OFFSET ( 5, 0, .BEHIND. ) ;
#79 = PERSON_AND_ORGANIZATION_ROLE ( 'design_supplier' ) ;
#80 = ORIENTED_EDGE ( 'NONE', *, *, #170, .F. ) ;
#81 = COORDINATED_UNIVERSAL_TIME_OFFSET ( 5, 0, .BEHIND. ) ;
#82 = LINE ( 'NONE', #121, #200 ) ;
#83 = CC_DESIGN_SECURITY_CLASSIFICATION ( #137, ( #61 ) ) ;
#84 = LINE ( 'NONE', #94, #171 ) ;
#85 = LINE ( 'NONE', #197, #232 ) ;
#86 = DIRECTION ( 'NONE',  ( -0.0000000000000000000, -1.000000000000000000, -0.0000000000000000000 ) ) ;
#87 = ORIENTED_EDGE ( 'NONE', *, *, #159, .T. ) ;
#88 = CARTESIAN_POINT ( 'NONE',  ( -25.00000000000000400, 25.00000000000000400, 2.000000000000000000 ) ) ;
#89 = CARTESIAN_POINT ( 'NONE',  ( 25.00000000000000000, -25.00000000000000000, 2.000000000000000000 ) ) ;
#90 = PERSON_AND_ORGANIZATION ( #217, #168 ) ;
#91 = DIRECTION ( 'NONE',  ( -0.0000000000000000000, -0.0000000000000000000, -1.000000000000000000 ) ) ;
#92 = EDGE_CURVE ( 'NONE', #173, #234, #32, .T. ) ;
#93 = FACE_OUTER_BOUND ( 'NONE', #28, .T. ) ;
#94 = CARTESIAN_POINT ( 'NONE',  ( -25.00000000000000400, 25.00000000000000400, 2.000000000000000000 ) ) ;
#95 = APPROVAL_STATUS ( 'not_yet_approved' ) ;
#96 = EDGE_LOOP ( 'NONE', ( #52, #105, #49, #154 ) ) ;
#97 = SHAPE_DEFINITION_REPRESENTATION ( #199, #208 ) ;
#98 = EDGE_LOOP ( 'NONE', ( #192, #206, #63, #161 ) ) ;
#99 = CC_DESIGN_PERSON_AND_ORGANIZATION_ASSIGNMENT ( #74, #184, ( #228 ) ) ;
#100 = PRODUCT ( 'Web Model 47231_11928', 'Web Model 47231_11928', '', ( #152 ) ) ;
#101 = CARTESIAN_POINT ( 'NONE',  ( 25.00000000000000000, -25.00000000000000000, -2.000000000000000000 ) ) ;
#102 = ORIENTED_EDGE ( 'NONE', *, *, #151, .T. ) ;
#103 = ADVANCED_FACE ( 'NONE', ( #40 ), #16, .F. ) ;
#104 = CARTESIAN_POINT ( 'NONE',  ( 25.00000000000000000, -25.00000000000000000, 2.000000000000000000 ) ) ;
#105 = ORIENTED_EDGE ( 'NONE', *, *, #48, .F. ) ;
#106 = APPROVAL_DATE_TIME ( #134, #230 ) ;
#107 = EDGE_CURVE ( 'NONE', #126, #212, #21, .T. ) ;
#108 = DIRECTION ( 'NONE',  ( 0.0000000000000000000, 0.0000000000000000000, -1.000000000000000000 ) ) ;
#109 = APPROVAL_STATUS ( 'not_yet_approved' ) ;
#110 = SECURITY_CLASSIFICATION_LEVEL ( 'unclassified' ) ;
#111 = EDGE_CURVE ( 'NONE', #5, #187, #220, .T. ) ;
#112 = LOCAL_TIME ( 10, 27, 2.000000000000000000, #207 ) ;
#113 = CARTESIAN_POINT ( 'NONE',  ( 0.0000000000000000000, 0.0000000000000000000, 0.0000000000000000000 ) ) ;
#114 = LOCAL_TIME ( 10, 27, 2.000000000000000000, #213 ) ;
#115 = CC_DESIGN_DATE_AND_TIME_ASSIGNMENT ( #155, #236, ( #137 ) ) ;
#116 = APPROVAL ( #109, 'UNSPECIFIED' ) ;
#117 = LINE ( 'NONE', #177, #145 ) ;
#118 = CALENDAR_DATE ( 2019, 7, 1 ) ;
#119 = LINE ( 'NONE', #17, #71 ) ;
#120 = LINE ( 'NONE', #88, #153 ) ;
#121 = CARTESIAN_POINT ( 'NONE',  ( 25.00000000000000000, 25.00000000000000400, 2.000000000000000000 ) ) ;
#122 = EDGE_CURVE ( 'NONE', #234, #14, #119, .T. ) ;
#123 = AXIS2_PLACEMENT_3D ( 'NONE', #190, #143, #35 ) ;
#124 = PLANE ( 'NONE',  #123 ) ;
#125 = DIRECTION ( 'NONE',  ( -1.000000000000000000, 0.0000000000000000000, -0.0000000000000000000 ) ) ;
#126 = VERTEX_POINT ( 'NONE', #231 ) ;
#127 = DIRECTION ( 'NONE',  ( -0.0000000000000000000, -1.000000000000000000, -0.0000000000000000000 ) ) ;
#128 = APPROVAL_PERSON_ORGANIZATION ( #33, #116, #205 ) ;
#129 = VECTOR ( 'NONE', #160, 1000.000000000000000 ) ;
#130 = DIRECTION ( 'NONE',  ( 0.0000000000000000000, -1.000000000000000000, 0.0000000000000000000 ) ) ;
#131 = EDGE_CURVE ( 'NONE', #29, #173, #84, .T. ) ;
#132 = CARTESIAN_POINT ( 'NONE',  ( 0.0000000000000000000, 0.0000000000000000000, 2.000000000000000000 ) ) ;
#133 = ADVANCED_FACE ( 'NONE', ( #211 ), #39, .T. ) ;
#134 = DATE_AND_TIME ( #69, #114 ) ;
#135 = PERSON_AND_ORGANIZATION_ROLE ( 'classification_officer' ) ;
#136 = DATE_AND_TIME ( #9, #204 ) ;
#137 = SECURITY_CLASSIFICATION ( '', '', #110 ) ;
#138 = EDGE_CURVE ( 'NONE', #212, #5, #42, .T. ) ;
#139 = ORIENTED_EDGE ( 'NONE', *, *, #4, .F. ) ;
#140 = PRODUCT_RELATED_PRODUCT_CATEGORY ( 'detail', '', ( #100 ) ) ;
#141 = ADVANCED_FACE ( 'NONE', ( #55 ), #178, .F. ) ;
#142 = CC_DESIGN_APPROVAL ( #116, ( #61 ) ) ;
#143 = DIRECTION ( 'NONE',  ( 0.0000000000000000000, 1.000000000000000000, 0.0000000000000000000 ) ) ;
#144 = PLANE ( 'NONE',  #27 ) ;
#145 = VECTOR ( 'NONE', #53, 1000.000000000000000 ) ;
#146 = DIRECTION ( 'NONE',  ( 0.0000000000000000000, 0.0000000000000000000, -1.000000000000000000 ) ) ;
#147 = CARTESIAN_POINT ( 'NONE',  ( -25.00000000000000400, -25.00000000000000000, -2.000000000000000000 ) ) ;
#148 = UNCERTAINTY_MEASURE_WITH_UNIT (LENGTH_MEASURE( 1.000000000000000100E-005 ), #44, 'distance_accuracy_value', 'NONE');
#149 = APPLICATION_CONTEXT ( 'configuration controlled 3d designs of mechanical parts and assemblies' ) ;
#150 = VECTOR ( 'NONE', #127, 1000.000000000000000 ) ;
#151 = EDGE_CURVE ( 'NONE', #14, #29, #85, .T. ) ;
#152 = MECHANICAL_CONTEXT ( 'NONE', #149, 'mechanical' ) ;
#153 = VECTOR ( 'NONE', #34, 1000.000000000000000 ) ;
#154 = ORIENTED_EDGE ( 'NONE', *, *, #4, .T. ) ;
#155 = DATE_AND_TIME ( #194, #225 ) ;
#156 = CC_DESIGN_APPROVAL ( #230, ( #137 ) ) ;
#157 = ORIENTED_EDGE ( 'NONE', *, *, #159, .F. ) ;
#158 = EDGE_LOOP ( 'NONE', ( #209, #80, #229, #203 ) ) ;
#159 = EDGE_CURVE ( 'NONE', #14, #5, #195, .T. ) ;
#160 = DIRECTION ( 'NONE',  ( 1.000000000000000000, 0.0000000000000000000, 0.0000000000000000000 ) ) ;
#161 = ORIENTED_EDGE ( 'NONE', *, *, #54, .F. ) ;
#162 = DIRECTION ( 'NONE',  ( 1.000000000000000000, 0.0000000000000000000, 0.0000000000000000000 ) ) ;
#163 = CARTESIAN_POINT ( 'NONE',  ( -25.00000000000000400, -25.00000000000000000, 2.000000000000000000 ) ) ;
#164 = PLANE ( 'NONE',  #7 ) ;
#165 = ORIENTED_EDGE ( 'NONE', *, *, #170, .T. ) ;
#166 = PERSON_AND_ORGANIZATION_ROLE ( 'design_owner' ) ;
#167 = VECTOR ( 'NONE', #182, 1000.000000000000000 ) ;
#168 = ORGANIZATION ( 'UNSPECIFIED', 'UNSPECIFIED', '' ) ;
#169 = ORIENTED_EDGE ( 'NONE', *, *, #122, .T. ) ;
#170 = EDGE_CURVE ( 'NONE', #234, #212, #188, .T. ) ;
#171 = VECTOR ( 'NONE', #75, 1000.000000000000000 ) ;
#172 = APPROVAL_PERSON_ORGANIZATION ( #90, #31, #62 ) ;
#173 = VERTEX_POINT ( 'NONE', #218 ) ;
#174 = DIRECTION ( 'NONE',  ( -0.0000000000000000000, -0.0000000000000000000, -1.000000000000000000 ) ) ;
#175 = APPROVAL_DATE_TIME ( #67, #116 ) ;
#176 = CARTESIAN_POINT ( 'NONE',  ( 25.00000000000000000, -25.00000000000000000, 2.000000000000000000 ) ) ;
#177 = CARTESIAN_POINT ( 'NONE',  ( -25.00000000000000400, 25.00000000000000400, -2.000000000000000000 ) ) ;
#178 = PLANE ( 'NONE',  #36 ) ;
#179 = DIRECTION ( 'NONE',  ( -1.000000000000000000, 0.0000000000000000000, -0.0000000000000000000 ) ) ;
#180 = ADVANCED_FACE ( 'NONE', ( #1 ), #144, .F. ) ;
#181 = MANIFOLD_SOLID_BREP ( 'Boss-Extrude1', #66 ) ;
#182 = DIRECTION ( 'NONE',  ( 0.0000000000000000000, 1.000000000000000000, 0.0000000000000000000 ) ) ;
#183 =( NAMED_UNIT ( * ) PLANE_ANGLE_UNIT ( ) SI_UNIT ( $, .RADIAN. ) );
#184 = PERSON_AND_ORGANIZATION_ROLE ( 'creator' ) ;
#185 = VECTOR ( 'NONE', #37, 1000.000000000000000 ) ;
#186 =( NAMED_UNIT ( * ) SI_UNIT ( $, .STERADIAN. ) SOLID_ANGLE_UNIT ( ) );
#187 = VERTEX_POINT ( 'NONE', #202 ) ;
#188 = LINE ( 'NONE', #163, #185 ) ;
#189 = CC_DESIGN_PERSON_AND_ORGANIZATION_ASSIGNMENT ( #237, #46, ( #61 ) ) ;
#190 = CARTESIAN_POINT ( 'NONE',  ( -25.00000000000000400, -25.00000000000000000, 2.000000000000000000 ) ) ;
#191 = ORIENTED_EDGE ( 'NONE', *, *, #138, .T. ) ;
#192 = ORIENTED_EDGE ( 'NONE', *, *, #111, .F. ) ;
#193 = ADVANCED_FACE ( 'NONE', ( #6 ), #164, .F. ) ;
#194 = CALENDAR_DATE ( 2019, 7, 1 ) ;
#195 = LINE ( 'NONE', #89, #50 ) ;
#196 = AXIS2_PLACEMENT_3D ( 'NONE', #113, #43, #24 ) ;
#197 = CARTESIAN_POINT ( 'NONE',  ( 25.00000000000000000, -25.00000000000000000, 2.000000000000000000 ) ) ;
#198 = DIRECTION ( 'NONE',  ( 0.0000000000000000000, 0.0000000000000000000, 1.000000000000000000 ) ) ;
#199 = PRODUCT_DEFINITION_SHAPE ( 'NONE', 'NONE',  #228 ) ;
#200 = VECTOR ( 'NONE', #174, 1000.000000000000000 ) ;
#201 = LOCAL_TIME ( 10, 27, 2.000000000000000000, #81 ) ;
#202 = CARTESIAN_POINT ( 'NONE',  ( 25.00000000000000000, 25.00000000000000400, -2.000000000000000000 ) ) ;
#203 = ORIENTED_EDGE ( 'NONE', *, *, #48, .T. ) ;
#204 = LOCAL_TIME ( 10, 27, 2.000000000000000000, #78 ) ;
#205 = APPROVAL_ROLE ( '' ) ;
#206 = ORIENTED_EDGE ( 'NONE', *, *, #138, .F. ) ;
#207 = COORDINATED_UNIVERSAL_TIME_OFFSET ( 5, 0, .BEHIND. ) ;
#208 = ADVANCED_BREP_SHAPE_REPRESENTATION ( 'Web Model 47231_11928', ( #181, #196 ), #51 ) ;
#209 = ORIENTED_EDGE ( 'NONE', *, *, #107, .T. ) ;
#210 = DESIGN_CONTEXT ( 'detailed design', #25, 'design' ) ;
#211 = FACE_OUTER_BOUND ( 'NONE', #98, .T. ) ;
#212 = VERTEX_POINT ( 'NONE', #20 ) ;
#213 = COORDINATED_UNIVERSAL_TIME_OFFSET ( 5, 0, .BEHIND. ) ;
#214 = EDGE_LOOP ( 'NONE', ( #102, #68, #18, #169 ) ) ;
#215 = CC_DESIGN_PERSON_AND_ORGANIZATION_ASSIGNMENT ( #70, #79, ( #61 ) ) ;
#216 = PERSON_AND_ORGANIZATION ( #217, #168 ) ;
#217 = PERSON ( 'UNSPECIFIED', 'UNSPECIFIED', 'UNSPECIFIED', ('UNSPECIFIED'), ('UNSPECIFIED'), ('UNSPECIFIED') ) ;
#218 = CARTESIAN_POINT ( 'NONE',  ( -25.00000000000000400, 25.00000000000000400, 2.000000000000000000 ) ) ;
#219 = CARTESIAN_POINT ( 'NONE',  ( -25.00000000000000400, -25.00000000000000000, -2.000000000000000000 ) ) ;
#220 = LINE ( 'NONE', #19, #167 ) ;
#221 = APPROVAL_DATE_TIME ( #26, #31 ) ;
#222 = DIRECTION ( 'NONE',  ( 0.0000000000000000000, 0.0000000000000000000, -1.000000000000000000 ) ) ;
#223 = DIRECTION ( 'NONE',  ( -1.000000000000000000, 0.0000000000000000000, 0.0000000000000000000 ) ) ;
#224 = CARTESIAN_POINT ( 'NONE',  ( -25.00000000000000400, 25.00000000000000400, 2.000000000000000000 ) ) ;
#225 = LOCAL_TIME ( 10, 27, 2.000000000000000000, #22 ) ;
#226 = ORIENTED_EDGE ( 'NONE', *, *, #111, .T. ) ;
#227 = CC_DESIGN_APPROVAL ( #31, ( #228 ) ) ;
#228 = PRODUCT_DEFINITION ( 'UNKNOWN', '', #61, #210 ) ;
#229 = ORIENTED_EDGE ( 'NONE', *, *, #92, .F. ) ;
#230 = APPROVAL ( #95, 'UNSPECIFIED' ) ;
#231 = CARTESIAN_POINT ( 'NONE',  ( -25.00000000000000400, 25.00000000000000400, -2.000000000000000000 ) ) ;
#232 = VECTOR ( 'NONE', #76, 1000.000000000000000 ) ;
#233 = CARTESIAN_POINT ( 'NONE',  ( 0.0000000000000000000, 0.0000000000000000000, -2.000000000000000000 ) ) ;
#234 = VERTEX_POINT ( 'NONE', #73 ) ;
#235 = APPLICATION_PROTOCOL_DEFINITION ( 'international standard', 'config_control_design', 1994, #149 ) ;
#236 = DATE_TIME_ROLE ( 'classification_date' ) ;
#237 = PERSON_AND_ORGANIZATION ( #217, #168 ) ;
ENDSEC;
END-ISO-10303-21;
