ISO-10303-21;
HEADER;
FILE_DESCRIPTION (( 'STEP AP203' ),
    '1' );
FILE_NAME ('Web Model 84453.STEP',
    '2017-02-01T15:43:57',
    ( '' ),
    ( '' ),
    'SwSTEP 2.0',
    'SolidWorks 2016',
    '' );
FILE_SCHEMA (( 'CONFIG_CONTROL_DESIGN' ));
ENDSEC;

DATA;
#1 = CARTESIAN_POINT ( 'NONE',  ( 0.0000000000000000000, 0.0000000000000000000, 0.0000000000000000000 ) ) ;
#2 = APPLICATION_CONTEXT ( 'configuration controlled 3d designs of mechanical parts and assemblies' ) ;
#3 = APPROVAL_STATUS ( 'not_yet_approved' ) ;
#4 = PRODUCT_DEFINITION_FORMATION_WITH_SPECIFIED_SOURCE ( 'ANY', '', #6, .NOT_KNOWN. ) ;
#5 = FACE_OUTER_BOUND ( 'NONE', #90, .T. ) ;
#6 = PRODUCT ( 'Web Model 84453', 'Web Model 84453', '', ( #45 ) ) ;
#7 = EDGE_CURVE ( 'NONE', #119, #135, #147, .T. ) ;
#8 = ORIENTED_EDGE ( 'NONE', *, *, #131, .F. ) ;
#9 = LINE ( 'NONE', #126, #84 ) ;
#10 = PERSON_AND_ORGANIZATION ( #25, #23 ) ;
#11 = CC_DESIGN_PERSON_AND_ORGANIZATION_ASSIGNMENT ( #10, #59, ( #166 ) ) ;
#12 = DIRECTION ( 'NONE',  ( 0.0000000000000000000, 0.0000000000000000000, 1.000000000000000000 ) ) ;
#13 = PLANE ( 'NONE',  #73 ) ;
#14 = DIRECTION ( 'NONE',  ( 0.0000000000000000000, 0.0000000000000000000, 1.000000000000000000 ) ) ;
#15 = CC_DESIGN_DATE_AND_TIME_ASSIGNMENT ( #132, #42, ( #166 ) ) ;
#16 = CALENDAR_DATE ( 2017, 1, 2 ) ;
#17 = PLANE ( 'NONE',  #19 ) ;
#18 = DIRECTION ( 'NONE',  ( 0.0000000000000000000, 0.0000000000000000000, 1.000000000000000000 ) ) ;
#19 = AXIS2_PLACEMENT_3D ( 'NONE', #1, #113, #104 ) ;
#20 = APPROVAL_PERSON_ORGANIZATION ( #87, #65, #144 ) ;
#21 = COORDINATED_UNIVERSAL_TIME_OFFSET ( 5, 0, .BEHIND. ) ;
#22 = APPROVAL ( #173, 'UNSPECIFIED' ) ;
#23 = ORGANIZATION ( 'UNSPECIFIED', 'UNSPECIFIED', '' ) ;
#24 = APPROVAL_DATE_TIME ( #35, #22 ) ;
#25 = PERSON ( 'UNSPECIFIED', 'UNSPECIFIED', 'UNSPECIFIED', ('UNSPECIFIED'), ('UNSPECIFIED'), ('UNSPECIFIED') ) ;
#26 = DIRECTION ( 'NONE',  ( 1.000000000000000000, 0.0000000000000000000, 0.0000000000000000000 ) ) ;
#27 = DIRECTION ( 'NONE',  ( 0.0000000000000000000, 0.0000000000000000000, 1.000000000000000000 ) ) ;
#28 = APPROVAL_DATE_TIME ( #93, #74 ) ;
#29 = APPROVAL_ROLE ( '' ) ;
#30 = AXIS2_PLACEMENT_3D ( 'NONE', #170, #14, #26 ) ;
#31 = CARTESIAN_POINT ( 'NONE',  ( -7.500000000000000000, 9.184850993605147900E-016, -2.000000000000000000 ) ) ;
#32 = EDGE_CURVE ( 'NONE', #146, #46, #133, .T. ) ;
#33 = ADVANCED_FACE ( 'NONE', ( #63 ), #17, .T. ) ;
#34 = APPROVAL_STATUS ( 'not_yet_approved' ) ;
#35 = DATE_AND_TIME ( #165, #108 ) ;
#36 = ORIENTED_EDGE ( 'NONE', *, *, #32, .T. ) ;
#37 = CALENDAR_DATE ( 2017, 1, 2 ) ;
#38 = CYLINDRICAL_SURFACE ( 'NONE', #107, 7.500000000000000000 ) ;
#39 = CC_DESIGN_PERSON_AND_ORGANIZATION_ASSIGNMENT ( #78, #158, ( #4 ) ) ;
#40 = DIRECTION ( 'NONE',  ( 1.000000000000000000, 0.0000000000000000000, 0.0000000000000000000 ) ) ;
#41 = EDGE_CURVE ( 'NONE', #46, #146, #139, .T. ) ;
#42 = DATE_TIME_ROLE ( 'classification_date' ) ;
#43 = PERSON_AND_ORGANIZATION ( #25, #23 ) ;
#44 = CARTESIAN_POINT ( 'NONE',  ( 0.0000000000000000000, 0.0000000000000000000, -2.000000000000000000 ) ) ;
#45 = MECHANICAL_CONTEXT ( 'NONE', #2, 'mechanical' ) ;
#46 = VERTEX_POINT ( 'NONE', #118 ) ;
#47 = CC_DESIGN_APPROVAL ( #22, ( #166 ) ) ;
#48 = DESIGN_CONTEXT ( 'detailed design', #163, 'design' ) ;
#49 = AXIS2_PLACEMENT_3D ( 'NONE', #169, #171, #40 ) ;
#50 = ORIENTED_EDGE ( 'NONE', *, *, #124, .F. ) ;
#51 = CC_DESIGN_SECURITY_CLASSIFICATION ( #166, ( #4 ) ) ;
#52 = CYLINDRICAL_SURFACE ( 'NONE', #30, 7.500000000000000000 ) ;
#53 = PRODUCT_DEFINITION ( 'UNKNOWN', '', #4, #48 ) ;
#54 = LOCAL_TIME ( 10, 43, 57.00000000000000000, #121 ) ;
#55 = DIRECTION ( 'NONE',  ( 0.0000000000000000000, 0.0000000000000000000, 1.000000000000000000 ) ) ;
#56 = CARTESIAN_POINT ( 'NONE',  ( 0.0000000000000000000, 0.0000000000000000000, -2.000000000000000000 ) ) ;
#57 = ORIENTED_EDGE ( 'NONE', *, *, #124, .T. ) ;
#58 = FACE_OUTER_BOUND ( 'NONE', #98, .T. ) ;
#59 = PERSON_AND_ORGANIZATION_ROLE ( 'classification_officer' ) ;
#60 = DIRECTION ( 'NONE',  ( 0.0000000000000000000, 0.0000000000000000000, 1.000000000000000000 ) ) ;
#61 = PERSON_AND_ORGANIZATION_ROLE ( 'creator' ) ;
#62 = EDGE_LOOP ( 'NONE', ( #138, #150, #66, #50 ) ) ;
#63 = FACE_OUTER_BOUND ( 'NONE', #109, .T. ) ;
#64 = PERSON_AND_ORGANIZATION ( #25, #23 ) ;
#65 = APPROVAL ( #3, 'UNSPECIFIED' ) ;
#66 = ORIENTED_EDGE ( 'NONE', *, *, #112, .F. ) ;
#67 = DATE_AND_TIME ( #125, #96 ) ;
#68 = DIRECTION ( 'NONE',  ( 0.0000000000000000000, 0.0000000000000000000, 1.000000000000000000 ) ) ;
#69 = PERSON_AND_ORGANIZATION ( #25, #23 ) ;
#70 = CC_DESIGN_PERSON_AND_ORGANIZATION_ASSIGNMENT ( #127, #61, ( #53 ) ) ;
#71 = ORIENTED_EDGE ( 'NONE', *, *, #41, .F. ) ;
#72 = PERSON_AND_ORGANIZATION_ROLE ( 'design_owner' ) ;
#73 = AXIS2_PLACEMENT_3D ( 'NONE', #56, #55, #137 ) ;
#74 = APPROVAL ( #34, 'UNSPECIFIED' ) ;
#75 = DIRECTION ( 'NONE',  ( 1.000000000000000000, 0.0000000000000000000, 0.0000000000000000000 ) ) ;
#76 = SECURITY_CLASSIFICATION_LEVEL ( 'unclassified' ) ;
#77 = FACE_OUTER_BOUND ( 'NONE', #62, .T. ) ;
#78 = PERSON_AND_ORGANIZATION ( #25, #23 ) ;
#79 = ADVANCED_FACE ( 'NONE', ( #77 ), #38, .T. ) ;
#80 = CARTESIAN_POINT ( 'NONE',  ( 0.0000000000000000000, 0.0000000000000000000, 0.0000000000000000000 ) ) ;
#81 = CARTESIAN_POINT ( 'NONE',  ( -7.500000000000000000, 9.184850993605147900E-016, -2.000000000000000000 ) ) ;
#82 = AXIS2_PLACEMENT_3D ( 'NONE', #95, #27, #89 ) ;
#83 = APPLICATION_PROTOCOL_DEFINITION ( 'international standard', 'config_control_design', 1994, #2 ) ;
#84 = VECTOR ( 'NONE', #60, 1000.000000000000000 ) ;
#85 =( GEOMETRIC_REPRESENTATION_CONTEXT ( 3 ) GLOBAL_UNCERTAINTY_ASSIGNED_CONTEXT ( ( #154 ) ) GLOBAL_UNIT_ASSIGNED_CONTEXT ( ( #105, #106, #145 ) ) REPRESENTATION_CONTEXT ( 'NONE', 'WORKASPACE' ) );
#86 = ORIENTED_EDGE ( 'NONE', *, *, #7, .T. ) ;
#87 = PERSON_AND_ORGANIZATION ( #25, #23 ) ;
#88 = LOCAL_TIME ( 10, 43, 57.00000000000000000, #116 ) ;
#89 = DIRECTION ( 'NONE',  ( 1.000000000000000000, 0.0000000000000000000, 0.0000000000000000000 ) ) ;
#90 = EDGE_LOOP ( 'NONE', ( #71, #156 ) ) ;
#91 = DIRECTION ( 'NONE',  ( 1.000000000000000000, 0.0000000000000000000, 0.0000000000000000000 ) ) ;
#92 = AXIS2_PLACEMENT_3D ( 'NONE', #161, #155, #75 ) ;
#93 = DATE_AND_TIME ( #37, #88 ) ;
#94 = CC_DESIGN_APPROVAL ( #74, ( #4 ) ) ;
#95 = CARTESIAN_POINT ( 'NONE',  ( 0.0000000000000000000, 0.0000000000000000000, 0.0000000000000000000 ) ) ;
#96 = LOCAL_TIME ( 10, 43, 57.00000000000000000, #21 ) ;
#97 = ADVANCED_BREP_SHAPE_REPRESENTATION ( 'Web Model 84453', ( #120, #134 ), #85 ) ;
#98 = EDGE_LOOP ( 'NONE', ( #8, #36, #57, #100 ) ) ;
#99 = APPROVAL_PERSON_ORGANIZATION ( #43, #74, #115 ) ;
#100 = ORIENTED_EDGE ( 'NONE', *, *, #7, .F. ) ;
#101 = CARTESIAN_POINT ( 'NONE',  ( -7.500000000000000000, 9.184850993605147900E-016, 0.0000000000000000000 ) ) ;
#102 = DIRECTION ( 'NONE',  ( 0.0000000000000000000, 0.0000000000000000000, 1.000000000000000000 ) ) ;
#103 = LINE ( 'NONE', #81, #175 ) ;
#104 = DIRECTION ( 'NONE',  ( 1.000000000000000000, 0.0000000000000000000, -0.0000000000000000000 ) ) ;
#105 =( LENGTH_UNIT ( ) NAMED_UNIT ( * ) SI_UNIT ( .MILLI., .METRE. ) );
#106 =( NAMED_UNIT ( * ) PLANE_ANGLE_UNIT ( ) SI_UNIT ( $, .RADIAN. ) );
#107 = AXIS2_PLACEMENT_3D ( 'NONE', #111, #12, #91 ) ;
#108 = LOCAL_TIME ( 10, 43, 57.00000000000000000, #141 ) ;
#109 = EDGE_LOOP ( 'NONE', ( #123, #86 ) ) ;
#110 = LOCAL_TIME ( 10, 43, 57.00000000000000000, #151 ) ;
#111 = CARTESIAN_POINT ( 'NONE',  ( 0.0000000000000000000, 0.0000000000000000000, -2.000000000000000000 ) ) ;
#112 = EDGE_CURVE ( 'NONE', #135, #119, #136, .T. ) ;
#113 = DIRECTION ( 'NONE',  ( 0.0000000000000000000, 0.0000000000000000000, 1.000000000000000000 ) ) ;
#114 = CLOSED_SHELL ( 'NONE', ( #79, #128, #148, #33 ) ) ;
#115 = APPROVAL_ROLE ( '' ) ;
#116 = COORDINATED_UNIVERSAL_TIME_OFFSET ( 5, 0, .BEHIND. ) ;
#117 = CC_DESIGN_PERSON_AND_ORGANIZATION_ASSIGNMENT ( #157, #72, ( #6 ) ) ;
#118 = CARTESIAN_POINT ( 'NONE',  ( 7.500000000000000000, 0.0000000000000000000, -2.000000000000000000 ) ) ;
#119 = VERTEX_POINT ( 'NONE', #101 ) ;
#120 = MANIFOLD_SOLID_BREP ( 'Extrude1', #114 ) ;
#121 = COORDINATED_UNIVERSAL_TIME_OFFSET ( 5, 0, .BEHIND. ) ;
#122 = PRODUCT_RELATED_PRODUCT_CATEGORY ( 'detail', '', ( #6 ) ) ;
#123 = ORIENTED_EDGE ( 'NONE', *, *, #112, .T. ) ;
#124 = EDGE_CURVE ( 'NONE', #46, #135, #9, .T. ) ;
#125 = CALENDAR_DATE ( 2017, 1, 2 ) ;
#126 = CARTESIAN_POINT ( 'NONE',  ( 7.500000000000000000, 0.0000000000000000000, -2.000000000000000000 ) ) ;
#127 = PERSON_AND_ORGANIZATION ( #25, #23 ) ;
#128 = ADVANCED_FACE ( 'NONE', ( #58 ), #52, .T. ) ;
#129 = DIRECTION ( 'NONE',  ( 1.000000000000000000, 0.0000000000000000000, 0.0000000000000000000 ) ) ;
#130 = APPLICATION_PROTOCOL_DEFINITION ( 'international standard', 'config_control_design', 1994, #163 ) ;
#131 = EDGE_CURVE ( 'NONE', #146, #119, #103, .T. ) ;
#132 = DATE_AND_TIME ( #16, #54 ) ;
#133 = CIRCLE ( 'NONE', #49, 7.500000000000000000 ) ;
#134 = AXIS2_PLACEMENT_3D ( 'NONE', #80, #68, #129 ) ;
#135 = VERTEX_POINT ( 'NONE', #143 ) ;
#136 = CIRCLE ( 'NONE', #92, 7.500000000000000000 ) ;
#137 = DIRECTION ( 'NONE',  ( 1.000000000000000000, 0.0000000000000000000, -0.0000000000000000000 ) ) ;
#138 = ORIENTED_EDGE ( 'NONE', *, *, #41, .T. ) ;
#139 = CIRCLE ( 'NONE', #164, 7.500000000000000000 ) ;
#140 = CC_DESIGN_DATE_AND_TIME_ASSIGNMENT ( #67, #162, ( #53 ) ) ;
#141 = COORDINATED_UNIVERSAL_TIME_OFFSET ( 5, 0, .BEHIND. ) ;
#142 = DIRECTION ( 'NONE',  ( 1.000000000000000000, 0.0000000000000000000, 0.0000000000000000000 ) ) ;
#143 = CARTESIAN_POINT ( 'NONE',  ( 7.500000000000000000, 0.0000000000000000000, 0.0000000000000000000 ) ) ;
#144 = APPROVAL_ROLE ( '' ) ;
#145 =( NAMED_UNIT ( * ) SI_UNIT ( $, .STERADIAN. ) SOLID_ANGLE_UNIT ( ) );
#146 = VERTEX_POINT ( 'NONE', #31 ) ;
#147 = CIRCLE ( 'NONE', #82, 7.500000000000000000 ) ;
#148 = ADVANCED_FACE ( 'NONE', ( #5 ), #13, .F. ) ;
#149 = APPROVAL_PERSON_ORGANIZATION ( #69, #22, #29 ) ;
#150 = ORIENTED_EDGE ( 'NONE', *, *, #131, .T. ) ;
#151 = COORDINATED_UNIVERSAL_TIME_OFFSET ( 5, 0, .BEHIND. ) ;
#152 = DATE_AND_TIME ( #167, #110 ) ;
#153 = CC_DESIGN_PERSON_AND_ORGANIZATION_ASSIGNMENT ( #64, #174, ( #4 ) ) ;
#154 = UNCERTAINTY_MEASURE_WITH_UNIT (LENGTH_MEASURE( 1.000000000000000100E-005 ), #105, 'distance_accuracy_value', 'NONE');
#155 = DIRECTION ( 'NONE',  ( 0.0000000000000000000, 0.0000000000000000000, 1.000000000000000000 ) ) ;
#156 = ORIENTED_EDGE ( 'NONE', *, *, #32, .F. ) ;
#157 = PERSON_AND_ORGANIZATION ( #25, #23 ) ;
#158 = PERSON_AND_ORGANIZATION_ROLE ( 'design_supplier' ) ;
#159 = SHAPE_DEFINITION_REPRESENTATION ( #160, #97 ) ;
#160 = PRODUCT_DEFINITION_SHAPE ( 'NONE', 'NONE',  #53 ) ;
#161 = CARTESIAN_POINT ( 'NONE',  ( 0.0000000000000000000, 0.0000000000000000000, 0.0000000000000000000 ) ) ;
#162 = DATE_TIME_ROLE ( 'creation_date' ) ;
#163 = APPLICATION_CONTEXT ( 'configuration controlled 3d designs of mechanical parts and assemblies' ) ;
#164 = AXIS2_PLACEMENT_3D ( 'NONE', #44, #18, #142 ) ;
#165 = CALENDAR_DATE ( 2017, 1, 2 ) ;
#166 = SECURITY_CLASSIFICATION ( '', '', #76 ) ;
#167 = CALENDAR_DATE ( 2017, 1, 2 ) ;
#168 = CC_DESIGN_APPROVAL ( #65, ( #53 ) ) ;
#169 = CARTESIAN_POINT ( 'NONE',  ( 0.0000000000000000000, 0.0000000000000000000, -2.000000000000000000 ) ) ;
#170 = CARTESIAN_POINT ( 'NONE',  ( 0.0000000000000000000, 0.0000000000000000000, -2.000000000000000000 ) ) ;
#171 = DIRECTION ( 'NONE',  ( 0.0000000000000000000, 0.0000000000000000000, 1.000000000000000000 ) ) ;
#172 = APPROVAL_DATE_TIME ( #152, #65 ) ;
#173 = APPROVAL_STATUS ( 'not_yet_approved' ) ;
#174 = PERSON_AND_ORGANIZATION_ROLE ( 'creator' ) ;
#175 = VECTOR ( 'NONE', #102, 1000.000000000000000 ) ;
ENDSEC;
END-ISO-10303-21;
