ISO-10303-21;
HEADER;
FILE_DESCRIPTION (( 'STEP AP203' ),
    '1' );
FILE_NAME ('Web Model 47683_14829.step',
    '2020-10-07T17:26:37',
    ( '' ),
    ( '' ),
    'SwSTEP 2.0',
    'SolidWorks 2018',
    '' );
FILE_SCHEMA (( 'CONFIG_CONTROL_DESIGN' ));
ENDSEC;

DATA;
#1 = CC_DESIGN_PERSON_AND_ORGANIZATION_ASSIGNMENT ( #175, #4, ( #89 ) ) ;
#2 = DATE_AND_TIME ( #148, #13 ) ;
#3 = PRODUCT_DEFINITION ( 'UNKNOWN', '', #133, #49 ) ;
#4 = PERSON_AND_ORGANIZATION_ROLE ( 'classification_officer' ) ;
#5 = DIRECTION ( 'NONE',  ( 0.0000000000000000000, 0.0000000000000000000, 1.000000000000000000 ) ) ;
#6 = DATE_TIME_ROLE ( 'classification_date' ) ;
#7 = PERSON_AND_ORGANIZATION_ROLE ( 'creator' ) ;
#8 = COORDINATED_UNIVERSAL_TIME_OFFSET ( 5, 0, .BEHIND. ) ;
#9 = ORIENTED_EDGE ( 'NONE', *, *, #22, .F. ) ;
#10 = LOCAL_TIME ( 13, 26, 37.00000000000000000, #44 ) ;
#11 = VERTEX_POINT ( 'NONE', #108 ) ;
#12 = AXIS2_PLACEMENT_3D ( 'NONE', #32, #112, #113 ) ;
#13 = LOCAL_TIME ( 13, 26, 37.00000000000000000, #53 ) ;
#14 = CIRCLE ( 'NONE', #139, 12.50000000000000000 ) ;
#15 = PRODUCT_RELATED_PRODUCT_CATEGORY ( 'detail', '', ( #130 ) ) ;
#16 = DIRECTION ( 'NONE',  ( -0.0000000000000000000, -0.0000000000000000000, -1.000000000000000000 ) ) ;
#17 = APPROVAL_DATE_TIME ( #157, #154 ) ;
#18 = CARTESIAN_POINT ( 'NONE',  ( 0.0000000000000000000, 0.0000000000000000000, -1.500000000000000000 ) ) ;
#19 = EDGE_CURVE ( 'NONE', #36, #173, #71, .T. ) ;
#20 = APPROVAL_ROLE ( '' ) ;
#21 = CC_DESIGN_APPROVAL ( #63, ( #3 ) ) ;
#22 = EDGE_CURVE ( 'NONE', #36, #111, #26, .T. ) ;
#23 = FACE_OUTER_BOUND ( 'NONE', #43, .T. ) ;
#24 = CC_DESIGN_PERSON_AND_ORGANIZATION_ASSIGNMENT ( #116, #80, ( #133 ) ) ;
#25 = LOCAL_TIME ( 13, 26, 37.00000000000000000, #58 ) ;
#26 = CIRCLE ( 'NONE', #41, 12.50000000000000000 ) ;
#27 = ORIENTED_EDGE ( 'NONE', *, *, #37, .F. ) ;
#28 = AXIS2_PLACEMENT_3D ( 'NONE', #104, #5, #93 ) ;
#29 = ORIENTED_EDGE ( 'NONE', *, *, #101, .T. ) ;
#30 = AXIS2_PLACEMENT_3D ( 'NONE', #137, #87, #98 ) ;
#31 = DIRECTION ( 'NONE',  ( 0.0000000000000000000, 0.0000000000000000000, 1.000000000000000000 ) ) ;
#32 = CARTESIAN_POINT ( 'NONE',  ( 0.0000000000000000000, 0.0000000000000000000, -1.500000000000000000 ) ) ;
#33 = AXIS2_PLACEMENT_3D ( 'NONE', #82, #50, #78 ) ;
#34 = APPLICATION_PROTOCOL_DEFINITION ( 'international standard', 'config_control_design', 1994, #64 ) ;
#35 =( NAMED_UNIT ( * ) SI_UNIT ( $, .STERADIAN. ) SOLID_ANGLE_UNIT ( ) );
#36 = VERTEX_POINT ( 'NONE', #120 ) ;
#37 = EDGE_CURVE ( 'NONE', #111, #11, #66, .T. ) ;
#38 =( GEOMETRIC_REPRESENTATION_CONTEXT ( 3 ) GLOBAL_UNCERTAINTY_ASSIGNED_CONTEXT ( ( #105 ) ) GLOBAL_UNIT_ASSIGNED_CONTEXT ( ( #102, #79, #35 ) ) REPRESENTATION_CONTEXT ( 'NONE', 'WORKASPACE' ) );
#39 = LOCAL_TIME ( 13, 26, 37.00000000000000000, #8 ) ;
#40 = ORIENTED_EDGE ( 'NONE', *, *, #124, .T. ) ;
#41 = AXIS2_PLACEMENT_3D ( 'NONE', #109, #119, #144 ) ;
#42 = AXIS2_PLACEMENT_3D ( 'NONE', #141, #92, #159 ) ;
#43 = EDGE_LOOP ( 'NONE', ( #107, #131 ) ) ;
#44 = COORDINATED_UNIVERSAL_TIME_OFFSET ( 5, 0, .BEHIND. ) ;
#45 = ORIENTED_EDGE ( 'NONE', *, *, #37, .T. ) ;
#46 = DATE_AND_TIME ( #86, #117 ) ;
#47 = MECHANICAL_CONTEXT ( 'NONE', #64, 'mechanical' ) ;
#48 = CARTESIAN_POINT ( 'NONE',  ( 0.0000000000000000000, 0.0000000000000000000, 0.0000000000000000000 ) ) ;
#49 = DESIGN_CONTEXT ( 'detailed design', #77, 'design' ) ;
#50 = DIRECTION ( 'NONE',  ( -0.0000000000000000000, -0.0000000000000000000, -1.000000000000000000 ) ) ;
#51 = APPROVAL_ROLE ( '' ) ;
#52 = CC_DESIGN_PERSON_AND_ORGANIZATION_ASSIGNMENT ( #135, #155, ( #130 ) ) ;
#53 = COORDINATED_UNIVERSAL_TIME_OFFSET ( 5, 0, .BEHIND. ) ;
#54 = PERSON_AND_ORGANIZATION ( #162, #67 ) ;
#55 = CLOSED_SHELL ( 'NONE', ( #174, #171, #56, #85 ) ) ;
#56 = ADVANCED_FACE ( 'NONE', ( #168 ), #123, .T. ) ;
#57 = CALENDAR_DATE ( 2020, 7, 10 ) ;
#58 = COORDINATED_UNIVERSAL_TIME_OFFSET ( 5, 0, .BEHIND. ) ;
#59 = CIRCLE ( 'NONE', #30, 12.50000000000000000 ) ;
#60 = CARTESIAN_POINT ( 'NONE',  ( 12.50000000000000000, 1.530808498934191521E-15, 1.500000000000000000 ) ) ;
#61 = AXIS2_PLACEMENT_3D ( 'NONE', #74, #31, #62 ) ;
#62 = DIRECTION ( 'NONE',  ( 1.000000000000000000, 0.0000000000000000000, -0.0000000000000000000 ) ) ;
#63 = APPROVAL ( #126, 'UNSPECIFIED' ) ;
#64 = APPLICATION_CONTEXT ( 'configuration controlled 3d designs of mechanical parts and assemblies' ) ;
#65 = PRODUCT_DEFINITION_SHAPE ( 'NONE', 'NONE',  #3 ) ;
#66 = LINE ( 'NONE', #153, #128 ) ;
#67 = ORGANIZATION ( 'UNSPECIFIED', 'UNSPECIFIED', '' ) ;
#68 = ORIENTED_EDGE ( 'NONE', *, *, #19, .T. ) ;
#69 = EDGE_CURVE ( 'NONE', #111, #36, #59, .T. ) ;
#70 = CC_DESIGN_APPROVAL ( #161, ( #133 ) ) ;
#71 = LINE ( 'NONE', #60, #172 ) ;
#72 = SHAPE_DEFINITION_REPRESENTATION ( #65, #132 ) ;
#73 = CC_DESIGN_PERSON_AND_ORGANIZATION_ASSIGNMENT ( #81, #7, ( #3 ) ) ;
#74 = CARTESIAN_POINT ( 'NONE',  ( 0.0000000000000000000, 0.0000000000000000000, 1.500000000000000000 ) ) ;
#75 = CYLINDRICAL_SURFACE ( 'NONE', #42, 12.50000000000000000 ) ;
#76 = EDGE_LOOP ( 'NONE', ( #169, #103, #45, #29 ) ) ;
#77 = APPLICATION_CONTEXT ( 'configuration controlled 3d designs of mechanical parts and assemblies' ) ;
#78 = DIRECTION ( 'NONE',  ( -1.000000000000000000, 0.0000000000000000000, 0.0000000000000000000 ) ) ;
#79 =( NAMED_UNIT ( * ) PLANE_ANGLE_UNIT ( ) SI_UNIT ( $, .RADIAN. ) );
#80 = PERSON_AND_ORGANIZATION_ROLE ( 'design_supplier' ) ;
#81 = PERSON_AND_ORGANIZATION ( #162, #67 ) ;
#82 = CARTESIAN_POINT ( 'NONE',  ( 0.0000000000000000000, 0.0000000000000000000, 1.500000000000000000 ) ) ;
#83 = CC_DESIGN_DATE_AND_TIME_ASSIGNMENT ( #156, #140, ( #3 ) ) ;
#84 = APPROVAL_PERSON_ORGANIZATION ( #118, #161, #20 ) ;
#85 = ADVANCED_FACE ( 'NONE', ( #23 ), #152, .F. ) ;
#86 = CALENDAR_DATE ( 2020, 7, 10 ) ;
#87 = DIRECTION ( 'NONE',  ( 0.0000000000000000000, 0.0000000000000000000, 1.000000000000000000 ) ) ;
#88 = DIRECTION ( 'NONE',  ( 1.000000000000000000, 0.0000000000000000000, 0.0000000000000000000 ) ) ;
#89 = SECURITY_CLASSIFICATION ( '', '', #90 ) ;
#90 = SECURITY_CLASSIFICATION_LEVEL ( 'unclassified' ) ;
#91 = APPROVAL_PERSON_ORGANIZATION ( #54, #154, #165 ) ;
#92 = DIRECTION ( 'NONE',  ( -0.0000000000000000000, -0.0000000000000000000, -1.000000000000000000 ) ) ;
#93 = DIRECTION ( 'NONE',  ( 1.000000000000000000, 0.0000000000000000000, 0.0000000000000000000 ) ) ;
#94 = EDGE_LOOP ( 'NONE', ( #9, #68, #40, #27 ) ) ;
#95 = DIRECTION ( 'NONE',  ( 1.000000000000000000, 0.0000000000000000000, 0.0000000000000000000 ) ) ;
#96 = CC_DESIGN_APPROVAL ( #154, ( #89 ) ) ;
#97 = EDGE_LOOP ( 'NONE', ( #146, #150 ) ) ;
#98 = DIRECTION ( 'NONE',  ( 1.000000000000000000, 0.0000000000000000000, 0.0000000000000000000 ) ) ;
#99 = DIRECTION ( 'NONE',  ( 0.0000000000000000000, 0.0000000000000000000, 1.000000000000000000 ) ) ;
#100 = APPROVAL_STATUS ( 'not_yet_approved' ) ;
#101 = EDGE_CURVE ( 'NONE', #11, #173, #14, .T. ) ;
#102 =( LENGTH_UNIT ( ) NAMED_UNIT ( * ) SI_UNIT ( .MILLI., .METRE. ) );
#103 = ORIENTED_EDGE ( 'NONE', *, *, #69, .F. ) ;
#104 = CARTESIAN_POINT ( 'NONE',  ( 0.0000000000000000000, 0.0000000000000000000, -1.500000000000000000 ) ) ;
#105 = UNCERTAINTY_MEASURE_WITH_UNIT (LENGTH_MEASURE( 1.000000000000000082E-05 ), #102, 'distance_accuracy_value', 'NONE');
#106 = FACE_OUTER_BOUND ( 'NONE', #76, .T. ) ;
#107 = ORIENTED_EDGE ( 'NONE', *, *, #101, .F. ) ;
#108 = CARTESIAN_POINT ( 'NONE',  ( -12.50000000000000000, 0.0000000000000000000, -1.500000000000000000 ) ) ;
#109 = CARTESIAN_POINT ( 'NONE',  ( 0.0000000000000000000, 0.0000000000000000000, 1.500000000000000000 ) ) ;
#110 = APPROVAL_DATE_TIME ( #46, #63 ) ;
#111 = VERTEX_POINT ( 'NONE', #129 ) ;
#112 = DIRECTION ( 'NONE',  ( 0.0000000000000000000, 0.0000000000000000000, 1.000000000000000000 ) ) ;
#113 = DIRECTION ( 'NONE',  ( 1.000000000000000000, 0.0000000000000000000, -0.0000000000000000000 ) ) ;
#114 = DIRECTION ( 'NONE',  ( 0.0000000000000000000, 0.0000000000000000000, 1.000000000000000000 ) ) ;
#115 = CARTESIAN_POINT ( 'NONE',  ( 12.50000000000000000, 1.530808498934191521E-15, -1.500000000000000000 ) ) ;
#116 = PERSON_AND_ORGANIZATION ( #162, #67 ) ;
#117 = LOCAL_TIME ( 13, 26, 37.00000000000000000, #151 ) ;
#118 = PERSON_AND_ORGANIZATION ( #162, #67 ) ;
#119 = DIRECTION ( 'NONE',  ( 0.0000000000000000000, 0.0000000000000000000, 1.000000000000000000 ) ) ;
#120 = CARTESIAN_POINT ( 'NONE',  ( 12.50000000000000000, 1.530808498934191521E-15, 1.500000000000000000 ) ) ;
#121 = FACE_OUTER_BOUND ( 'NONE', #94, .T. ) ;
#122 = APPROVAL_PERSON_ORGANIZATION ( #160, #63, #51 ) ;
#123 = PLANE ( 'NONE',  #61 ) ;
#124 = EDGE_CURVE ( 'NONE', #173, #11, #134, .T. ) ;
#125 = CYLINDRICAL_SURFACE ( 'NONE', #33, 12.50000000000000000 ) ;
#126 = APPROVAL_STATUS ( 'not_yet_approved' ) ;
#127 = CALENDAR_DATE ( 2020, 7, 10 ) ;
#128 = VECTOR ( 'NONE', #16, 1000.000000000000000 ) ;
#129 = CARTESIAN_POINT ( 'NONE',  ( -12.50000000000000000, 0.0000000000000000000, 1.500000000000000000 ) ) ;
#130 = PRODUCT ( 'Web Model 47683_14829', 'Web Model 47683_14829', '', ( #47 ) ) ;
#131 = ORIENTED_EDGE ( 'NONE', *, *, #124, .F. ) ;
#132 = ADVANCED_BREP_SHAPE_REPRESENTATION ( 'Web Model 47683_14829', ( #147, #170 ), #38 ) ;
#133 = PRODUCT_DEFINITION_FORMATION_WITH_SPECIFIED_SOURCE ( 'ANY', '', #130, .NOT_KNOWN. ) ;
#134 = CIRCLE ( 'NONE', #28, 12.50000000000000000 ) ;
#135 = PERSON_AND_ORGANIZATION ( #162, #67 ) ;
#136 = DATE_AND_TIME ( #145, #10 ) ;
#137 = CARTESIAN_POINT ( 'NONE',  ( 0.0000000000000000000, 0.0000000000000000000, 1.500000000000000000 ) ) ;
#138 = APPROVAL_STATUS ( 'not_yet_approved' ) ;
#139 = AXIS2_PLACEMENT_3D ( 'NONE', #18, #99, #95 ) ;
#140 = DATE_TIME_ROLE ( 'creation_date' ) ;
#141 = CARTESIAN_POINT ( 'NONE',  ( 0.0000000000000000000, 0.0000000000000000000, 1.500000000000000000 ) ) ;
#142 = APPROVAL_DATE_TIME ( #2, #161 ) ;
#143 = CC_DESIGN_DATE_AND_TIME_ASSIGNMENT ( #136, #6, ( #89 ) ) ;
#144 = DIRECTION ( 'NONE',  ( 1.000000000000000000, 0.0000000000000000000, 0.0000000000000000000 ) ) ;
#145 = CALENDAR_DATE ( 2020, 7, 10 ) ;
#146 = ORIENTED_EDGE ( 'NONE', *, *, #69, .T. ) ;
#147 = MANIFOLD_SOLID_BREP ( 'Boss-Extrude1', #55 ) ;
#148 = CALENDAR_DATE ( 2020, 7, 10 ) ;
#149 = PERSON_AND_ORGANIZATION ( #162, #67 ) ;
#150 = ORIENTED_EDGE ( 'NONE', *, *, #22, .T. ) ;
#151 = COORDINATED_UNIVERSAL_TIME_OFFSET ( 5, 0, .BEHIND. ) ;
#152 = PLANE ( 'NONE',  #12 ) ;
#153 = CARTESIAN_POINT ( 'NONE',  ( -12.50000000000000000, 0.0000000000000000000, 1.500000000000000000 ) ) ;
#154 = APPROVAL ( #100, 'UNSPECIFIED' ) ;
#155 = PERSON_AND_ORGANIZATION_ROLE ( 'design_owner' ) ;
#156 = DATE_AND_TIME ( #57, #39 ) ;
#157 = DATE_AND_TIME ( #127, #25 ) ;
#158 = PERSON_AND_ORGANIZATION_ROLE ( 'creator' ) ;
#159 = DIRECTION ( 'NONE',  ( -1.000000000000000000, 0.0000000000000000000, 0.0000000000000000000 ) ) ;
#160 = PERSON_AND_ORGANIZATION ( #162, #67 ) ;
#161 = APPROVAL ( #138, 'UNSPECIFIED' ) ;
#162 = PERSON ( 'UNSPECIFIED', 'UNSPECIFIED', 'UNSPECIFIED', ('UNSPECIFIED'), ('UNSPECIFIED'), ('UNSPECIFIED') ) ;
#163 = DIRECTION ( 'NONE',  ( -0.0000000000000000000, -0.0000000000000000000, -1.000000000000000000 ) ) ;
#164 = CC_DESIGN_SECURITY_CLASSIFICATION ( #89, ( #133 ) ) ;
#165 = APPROVAL_ROLE ( '' ) ;
#166 = CC_DESIGN_PERSON_AND_ORGANIZATION_ASSIGNMENT ( #149, #158, ( #133 ) ) ;
#167 = APPLICATION_PROTOCOL_DEFINITION ( 'international standard', 'config_control_design', 1994, #77 ) ;
#168 = FACE_OUTER_BOUND ( 'NONE', #97, .T. ) ;
#169 = ORIENTED_EDGE ( 'NONE', *, *, #19, .F. ) ;
#170 = AXIS2_PLACEMENT_3D ( 'NONE', #48, #114, #88 ) ;
#171 = ADVANCED_FACE ( 'NONE', ( #106 ), #125, .T. ) ;
#172 = VECTOR ( 'NONE', #163, 1000.000000000000000 ) ;
#173 = VERTEX_POINT ( 'NONE', #115 ) ;
#174 = ADVANCED_FACE ( 'NONE', ( #121 ), #75, .T. ) ;
#175 = PERSON_AND_ORGANIZATION ( #162, #67 ) ;
ENDSEC;
END-ISO-10303-21;
