ISO-10303-21;
HEADER;
FILE_DESCRIPTION (( 'STEP AP203' ),
    '1' );
FILE_NAME ('24983-E0W.STEP',
    '2015-04-28T20:37:20',
    ( 'Admin' ),
    ( '' ),
    'SwSTEP 2.0',
    'SolidWorks 2014',
    '' );
FILE_SCHEMA (( 'CONFIG_CONTROL_DESIGN' ));
ENDSEC;

DATA;
#1 = CARTESIAN_POINT ( 'NONE',  ( 0.0000000000000000000, 0.0000000000000000000, -44.11499917211100600 ) ) ;
#2 = EDGE_CURVE ( 'NONE', #125, #275, #238, .T. ) ;
#3 = EDGE_LOOP ( 'NONE', ( #191, #216, #95, #25 ) ) ;
#4 = ORIENTED_EDGE ( 'NONE', *, *, #247, .T. ) ;
#5 = EDGE_CURVE ( 'NONE', #181, #300, #128, .T. ) ;
#6 = EDGE_CURVE ( 'NONE', #300, #181, #170, .T. ) ;
#7 = VERTEX_POINT ( 'NONE', #261 ) ;
#8 = CIRCLE ( 'NONE', #297, 12.69999999999999900 ) ;
#9 = CARTESIAN_POINT ( 'NONE',  ( 0.0000000000000000000, 0.0000000000000000000, 0.1453995828268953000 ) ) ;
#10 = DATE_AND_TIME ( #26, #44 ) ;
#11 = DIRECTION ( 'NONE',  ( 1.000000000000000000, 0.0000000000000000000, 0.0000000000000000000 ) ) ;
#12 = DIRECTION ( 'NONE',  ( 1.000000000000000000, 0.0000000000000000000, 0.0000000000000000000 ) ) ;
#13 = DIRECTION ( 'NONE',  ( -0.0000000000000000000, -0.0000000000000000000, 1.000000000000000000 ) ) ;
#14 = AXIS2_PLACEMENT_3D ( 'NONE', #132, #102, #117 ) ;
#15 = VERTEX_POINT ( 'NONE', #66 ) ;
#16 = EDGE_LOOP ( 'NONE', ( #155, #42, #98, #278 ) ) ;
#17 = LINE ( 'NONE', #43, #161 ) ;
#18 = FACE_OUTER_BOUND ( 'NONE', #179, .T. ) ;
#19 = PRODUCT_DEFINITION ( 'UNKNOWN', '', #94, #277 ) ;
#20 = APPROVAL ( #137, 'UNSPECIFIED' ) ;
#21 = DIRECTION ( 'NONE',  ( 1.000000000000000000, 0.0000000000000000000, 0.0000000000000000000 ) ) ;
#22 = DIRECTION ( 'NONE',  ( 0.7071067811865431300, 8.659560562354878600E-017, -0.7071067811865519000 ) ) ;
#23 = PRODUCT ( '24983-E0W', '24983-E0W', '', ( #222 ) ) ;
#24 = CYLINDRICAL_SURFACE ( 'NONE', #206, 12.69999999999999900 ) ;
#25 = ORIENTED_EDGE ( 'NONE', *, *, #246, .F. ) ;
#26 = CALENDAR_DATE ( 2015, 28, 4 ) ;
#27 = DIRECTION ( 'NONE',  ( -0.0000000000000000000, -0.0000000000000000000, 1.000000000000000000 ) ) ;
#28 = PERSON_AND_ORGANIZATION ( #254, #121 ) ;
#29 = VERTEX_POINT ( 'NONE', #262 ) ;
#30 = FACE_OUTER_BOUND ( 'NONE', #68, .T. ) ;
#31 = DIRECTION ( 'NONE',  ( 0.0000000000000000000, 0.0000000000000000000, -1.000000000000000000 ) ) ;
#32 = CARTESIAN_POINT ( 'NONE',  ( 0.0000000000000000000, 0.0000000000000000000, -1.895000000000000900 ) ) ;
#33 = EDGE_CURVE ( 'NONE', #29, #187, #220, .T. ) ;
#34 = ADVANCED_FACE ( 'NONE', ( #18 ), #211, .T. ) ;
#35 = AXIS2_PLACEMENT_3D ( 'NONE', #57, #164, #173 ) ;
#36 = CARTESIAN_POINT ( 'NONE',  ( 12.55857864376269000, 0.0000000000000000000, 0.1453995828268918300 ) ) ;
#37 = DATE_TIME_ROLE ( 'creation_date' ) ;
#38 = CARTESIAN_POINT ( 'NONE',  ( 12.55857864376269000, 0.0000000000000000000, -1.895000000000000900 ) ) ;
#39 = APPROVAL_PERSON_ORGANIZATION ( #242, #20, #130 ) ;
#40 = DATE_AND_TIME ( #172, #209 ) ;
#41 = AXIS2_PLACEMENT_3D ( 'NONE', #9, #13, #21 ) ;
#42 = ORIENTED_EDGE ( 'NONE', *, *, #289, .T. ) ;
#43 = CARTESIAN_POINT ( 'NONE',  ( 12.70000000000000100, 1.555301434917138600E-015, 0.003978226589582134500 ) ) ;
#44 = LOCAL_TIME ( 16, 37, 20.00000000000000000, #192 ) ;
#45 = PERSON_AND_ORGANIZATION_ROLE ( 'creator' ) ;
#46 = SECURITY_CLASSIFICATION ( '', '', #101 ) ;
#47 = CARTESIAN_POINT ( 'NONE',  ( 0.0000000000000000000, 0.0000000000000000000, 0.003978226589582134500 ) ) ;
#48 = EDGE_LOOP ( 'NONE', ( #255, #97, #126, #268 ) ) ;
#49 = DIRECTION ( 'NONE',  ( -1.000000000000000000, 0.0000000000000000000, 0.0000000000000000000 ) ) ;
#50 = FACE_OUTER_BOUND ( 'NONE', #195, .T. ) ;
#51 = CARTESIAN_POINT ( 'NONE',  ( 0.0000000000000000000, 0.0000000000000000000, 0.003978226589582134500 ) ) ;
#52 = AXIS2_PLACEMENT_3D ( 'NONE', #248, #239, #145 ) ;
#53 = DIRECTION ( 'NONE',  ( 1.000000000000000000, 0.0000000000000000000, 0.0000000000000000000 ) ) ;
#54 = CARTESIAN_POINT ( 'NONE',  ( 0.0000000000000000000, 0.0000000000000000000, 35.72254576870004400 ) ) ;
#55 = EDGE_LOOP ( 'NONE', ( #4, #144, #109 ) ) ;
#56 = AXIS2_PLACEMENT_3D ( 'NONE', #47, #31, #49 ) ;
#57 = CARTESIAN_POINT ( 'NONE',  ( 0.0000000000000000000, 0.0000000000000000000, -44.11499917211100600 ) ) ;
#58 = VECTOR ( 'NONE', #287, 1000.000000000000000 ) ;
#59 = ADVANCED_FACE ( 'NONE', ( #133 ), #61, .T. ) ;
#60 = EDGE_CURVE ( 'NONE', #245, #15, #8, .T. ) ;
#61 = TOROIDAL_SURFACE ( 'NONE', #35, -0.008728229769992476600, 46.00999999999619700 ) ;
#62 = VECTOR ( 'NONE', #210, 1000.000000000000000 ) ;
#63 = DIRECTION ( 'NONE',  ( -0.0000000000000000000, -0.0000000000000000000, 1.000000000000000000 ) ) ;
#64 = DIRECTION ( 'NONE',  ( 1.000000000000000000, 0.0000000000000000000, 0.0000000000000000000 ) ) ;
#65 = UNCERTAINTY_MEASURE_WITH_UNIT (LENGTH_MEASURE( 1.000000000000000100E-005 ), #251, 'distance_accuracy_value', 'NONE');
#66 = CARTESIAN_POINT ( 'NONE',  ( -12.69999999999999900, 1.555301434917138400E-015, -1.753578643762687700 ) ) ;
#67 = PLANE ( 'NONE',  #253 ) ;
#68 = EDGE_LOOP ( 'NONE', ( #296, #153 ) ) ;
#69 = ADVANCED_BREP_SHAPE_REPRESENTATION ( '24983-E0W', ( #240, #213 ), #108 ) ;
#70 = CIRCLE ( 'NONE', #52, 46.00999999999619000 ) ;
#71 = APPROVAL ( #185, 'UNSPECIFIED' ) ;
#72 = CARTESIAN_POINT ( 'NONE',  ( 12.55857864376269000, 0.0000000000000000000, -1.895000000000000900 ) ) ;
#73 = LOCAL_TIME ( 16, 37, 20.00000000000000000, #291 ) ;
#74 = DIRECTION ( 'NONE',  ( 1.000000000000000000, 0.0000000000000000000, 0.0000000000000000000 ) ) ;
#75 = AXIS2_PLACEMENT_3D ( 'NONE', #214, #163, #228 ) ;
#76 = DIRECTION ( 'NONE',  ( -0.0000000000000000000, -0.0000000000000000000, 1.000000000000000000 ) ) ;
#77 = DIRECTION ( 'NONE',  ( 1.000000000000000000, 0.0000000000000000000, 0.0000000000000000000 ) ) ;
#78 = ORIENTED_EDGE ( 'NONE', *, *, #2, .T. ) ;
#79 = CARTESIAN_POINT ( 'NONE',  ( 12.70000000000000100, 0.0000000000000000000, 0.003978226589582134500 ) ) ;
#80 = PRODUCT_DEFINITION_SHAPE ( 'NONE', 'NONE',  #19 ) ;
#81 = AXIS2_PLACEMENT_3D ( 'NONE', #223, #241, #53 ) ;
#82 = EDGE_CURVE ( 'NONE', #15, #29, #188, .T. ) ;
#83 = ADVANCED_FACE ( 'NONE', ( #271 ), #272, .T. ) ;
#84 = AXIS2_PLACEMENT_3D ( 'NONE', #183, #193, #154 ) ;
#85 = LINE ( 'NONE', #72, #146 ) ;
#86 = DIRECTION ( 'NONE',  ( 0.7071067811865388000, 0.0000000000000000000, 0.7071067811865561200 ) ) ;
#87 = ORIENTED_EDGE ( 'NONE', *, *, #148, .T. ) ;
#88 = DIRECTION ( 'NONE',  ( -0.0000000000000000000, -0.0000000000000000000, 1.000000000000000000 ) ) ;
#89 = EDGE_CURVE ( 'NONE', #181, #15, #162, .T. ) ;
#90 = CIRCLE ( 'NONE', #264, 12.69999999999999900 ) ;
#91 = FACE_OUTER_BOUND ( 'NONE', #48, .T. ) ;
#92 = CC_DESIGN_PERSON_AND_ORGANIZATION_ASSIGNMENT ( #274, #252, ( #94 ) ) ;
#93 = CARTESIAN_POINT ( 'NONE',  ( 0.0000000000000000000, 0.0000000000000000000, -1.895000000000000000 ) ) ;
#94 = PRODUCT_DEFINITION_FORMATION_WITH_SPECIFIED_SOURCE ( 'ANY', '', #23, .NOT_KNOWN. ) ;
#95 = ORIENTED_EDGE ( 'NONE', *, *, #198, .T. ) ;
#96 = ORIENTED_EDGE ( 'NONE', *, *, #89, .T. ) ;
#97 = ORIENTED_EDGE ( 'NONE', *, *, #246, .T. ) ;
#98 = ORIENTED_EDGE ( 'NONE', *, *, #168, .T. ) ;
#99 = CALENDAR_DATE ( 2015, 28, 4 ) ;
#100 = DIRECTION ( 'NONE',  ( 0.0000000000000000000, -0.0000000000000000000, 1.000000000000000000 ) ) ;
#101 = SECURITY_CLASSIFICATION_LEVEL ( 'unclassified' ) ;
#102 = DIRECTION ( 'NONE',  ( 1.224646799147353200E-016, 1.000000000000000000, 0.0000000000000000000 ) ) ;
#103 = PERSON_AND_ORGANIZATION_ROLE ( 'classification_officer' ) ;
#104 = DIRECTION ( 'NONE',  ( 1.000000000000000000, 0.0000000000000000000, 0.0000000000000000000 ) ) ;
#105 = EDGE_CURVE ( 'NONE', #125, #29, #200, .T. ) ;
#106 = ADVANCED_FACE ( 'NONE', ( #91 ), #24, .T. ) ;
#107 = DIRECTION ( 'NONE',  ( -0.0000000000000000000, -0.0000000000000000000, 1.000000000000000000 ) ) ;
#108 =( GEOMETRIC_REPRESENTATION_CONTEXT ( 3 ) GLOBAL_UNCERTAINTY_ASSIGNED_CONTEXT ( ( #65 ) ) GLOBAL_UNIT_ASSIGNED_CONTEXT ( ( #251, #293, #285 ) ) REPRESENTATION_CONTEXT ( 'NONE', 'WORKASPACE' ) );
#109 = ORIENTED_EDGE ( 'NONE', *, *, #148, .F. ) ;
#110 = CARTESIAN_POINT ( 'NONE',  ( -12.55857864376269000, 1.546641874354783400E-015, -1.895000000000000900 ) ) ;
#111 = ORIENTED_EDGE ( 'NONE', *, *, #289, .F. ) ;
#112 = CONICAL_SURFACE ( 'NONE', #152, 12.70000000000000100, 0.7853981633974420600 ) ;
#113 = LOCAL_TIME ( 16, 37, 20.00000000000000000, #182 ) ;
#114 = APPROVAL_DATE_TIME ( #10, #299 ) ;
#115 = AXIS2_PLACEMENT_3D ( 'NONE', #265, #88, #294 ) ;
#116 = PRODUCT_RELATED_PRODUCT_CATEGORY ( 'detail', '', ( #23 ) ) ;
#117 = DIRECTION ( 'NONE',  ( -1.000000000000000000, 1.224646799147353200E-016, 0.0000000000000000000 ) ) ;
#118 = PERSON_AND_ORGANIZATION ( #254, #121 ) ;
#119 = CARTESIAN_POINT ( 'NONE',  ( 12.69999999999999900, 0.0000000000000000000, -1.753578643762687700 ) ) ;
#120 = ORIENTED_EDGE ( 'NONE', *, *, #2, .F. ) ;
#121 = ORGANIZATION ( 'UNSPECIFIED', 'UNSPECIFIED', '' ) ;
#122 = CALENDAR_DATE ( 2015, 28, 4 ) ;
#123 = DIRECTION ( 'NONE',  ( 1.000000000000000000, 0.0000000000000000000, 0.0000000000000000000 ) ) ;
#124 = DATE_TIME_ROLE ( 'classification_date' ) ;
#125 = VERTEX_POINT ( 'NONE', #139 ) ;
#126 = ORIENTED_EDGE ( 'NONE', *, *, #127, .T. ) ;
#127 = EDGE_CURVE ( 'NONE', #245, #187, #156, .T. ) ;
#128 = CIRCLE ( 'NONE', #169, 12.55857864376269000 ) ;
#129 = CARTESIAN_POINT ( 'NONE',  ( 0.0000000000000000000, 0.0000000000000000000, -1.753578643762687700 ) ) ;
#130 = APPROVAL_ROLE ( '' ) ;
#131 = CARTESIAN_POINT ( 'NONE',  ( 0.0000000000000000000, 0.0000000000000000000, -1.895000000000000900 ) ) ;
#132 = CARTESIAN_POINT ( 'NONE',  ( 0.008728229769992476600, -1.068899865004392400E-018, -44.11499917211100600 ) ) ;
#133 = FACE_OUTER_BOUND ( 'NONE', #55, .T. ) ;
#134 = DIRECTION ( 'NONE',  ( -0.0000000000000000000, -0.0000000000000000000, 1.000000000000000000 ) ) ;
#135 = TOROIDAL_SURFACE ( 'NONE', #295, -0.008728229769992476600, 46.00999999999619700 ) ;
#136 = CC_DESIGN_PERSON_AND_ORGANIZATION_ASSIGNMENT ( #160, #147, ( #94 ) ) ;
#137 = APPROVAL_STATUS ( 'not_yet_approved' ) ;
#138 = CARTESIAN_POINT ( 'NONE',  ( 12.69999999999999900, 0.0000000000000000000, 35.72254576870004400 ) ) ;
#139 = CARTESIAN_POINT ( 'NONE',  ( -12.55857864376269000, 1.537982313792428500E-015, 0.1453995828268918300 ) ) ;
#140 = ORIENTED_EDGE ( 'NONE', *, *, #33, .T. ) ;
#141 = ADVANCED_FACE ( 'NONE', ( #202 ), #112, .T. ) ;
#142 = CC_DESIGN_SECURITY_CLASSIFICATION ( #46, ( #94 ) ) ;
#143 = APPROVAL_DATE_TIME ( #167, #20 ) ;
#144 = ORIENTED_EDGE ( 'NONE', *, *, #219, .T. ) ;
#145 = DIRECTION ( 'NONE',  ( 0.0000000000000000000, 0.0000000000000000000, -1.000000000000000000 ) ) ;
#146 = VECTOR ( 'NONE', #86, 1000.000000000000100 ) ;
#147 = PERSON_AND_ORGANIZATION_ROLE ( 'design_supplier' ) ;
#148 = EDGE_CURVE ( 'NONE', #275, #7, #70, .T. ) ;
#149 = AXIS2_PLACEMENT_3D ( 'NONE', #131, #288, #64 ) ;
#150 = ADVANCED_FACE ( 'NONE', ( #50 ), #157, .T. ) ;
#151 = CARTESIAN_POINT ( 'NONE',  ( -12.55857864376269000, 1.537982313792428700E-015, -1.895000000000000900 ) ) ;
#152 = AXIS2_PLACEMENT_3D ( 'NONE', #269, #243, #234 ) ;
#153 = ORIENTED_EDGE ( 'NONE', *, *, #5, .F. ) ;
#154 = DIRECTION ( 'NONE',  ( 1.000000000000000000, 0.0000000000000000000, 0.0000000000000000000 ) ) ;
#155 = ORIENTED_EDGE ( 'NONE', *, *, #247, .F. ) ;
#156 = LINE ( 'NONE', #138, #58 ) ;
#157 = CONICAL_SURFACE ( 'NONE', #149, 12.55857864376269000, 0.7853981633974360700 ) ;
#158 = CC_DESIGN_PERSON_AND_ORGANIZATION_ASSIGNMENT ( #159, #45, ( #19 ) ) ;
#159 = PERSON_AND_ORGANIZATION ( #254, #121 ) ;
#160 = PERSON_AND_ORGANIZATION ( #254, #121 ) ;
#161 = VECTOR ( 'NONE', #22, 1000.000000000000000 ) ;
#162 = LINE ( 'NONE', #151, #180 ) ;
#163 = DIRECTION ( 'NONE',  ( -0.0000000000000000000, -0.0000000000000000000, 1.000000000000000000 ) ) ;
#164 = DIRECTION ( 'NONE',  ( -0.0000000000000000000, -0.0000000000000000000, 1.000000000000000000 ) ) ;
#165 = APPROVAL_PERSON_ORGANIZATION ( #201, #71, #177 ) ;
#166 = APPROVAL_DATE_TIME ( #171, #71 ) ;
#167 = DATE_AND_TIME ( #250, #73 ) ;
#168 = EDGE_CURVE ( 'NONE', #187, #29, #257, .T. ) ;
#169 = AXIS2_PLACEMENT_3D ( 'NONE', #32, #107, #12 ) ;
#170 = CIRCLE ( 'NONE', #75, 12.55857864376269000 ) ;
#171 = DATE_AND_TIME ( #99, #113 ) ;
#172 = CALENDAR_DATE ( 2015, 28, 4 ) ;
#173 = DIRECTION ( 'NONE',  ( 1.000000000000000000, 0.0000000000000000000, 0.0000000000000000000 ) ) ;
#174 = SHAPE_DEFINITION_REPRESENTATION ( #80, #69 ) ;
#175 = EDGE_LOOP ( 'NONE', ( #111, #120, #279, #140 ) ) ;
#176 = CARTESIAN_POINT ( 'NONE',  ( 0.0000000000000000000, 0.0000000000000000000, -1.753578643762687700 ) ) ;
#177 = APPROVAL_ROLE ( '' ) ;
#178 = DIRECTION ( 'NONE',  ( -0.0000000000000000000, -0.0000000000000000000, 1.000000000000000000 ) ) ;
#179 = EDGE_LOOP ( 'NONE', ( #237, #236, #190, #249 ) ) ;
#180 = VECTOR ( 'NONE', #215, 1000.000000000000100 ) ;
#181 = VERTEX_POINT ( 'NONE', #110 ) ;
#182 = COORDINATED_UNIVERSAL_TIME_OFFSET ( 5, 0, .BEHIND. ) ;
#183 = CARTESIAN_POINT ( 'NONE',  ( 0.0000000000000000000, 0.0000000000000000000, -1.895000000000000900 ) ) ;
#184 = CC_DESIGN_PERSON_AND_ORGANIZATION_ASSIGNMENT ( #118, #103, ( #46 ) ) ;
#185 = APPROVAL_STATUS ( 'not_yet_approved' ) ;
#186 = APPROVAL_STATUS ( 'not_yet_approved' ) ;
#187 = VERTEX_POINT ( 'NONE', #79 ) ;
#188 = LINE ( 'NONE', #194, #62 ) ;
#189 = ORIENTED_EDGE ( 'NONE', *, *, #6, .T. ) ;
#190 = ORIENTED_EDGE ( 'NONE', *, *, #168, .F. ) ;
#191 = ORIENTED_EDGE ( 'NONE', *, *, #89, .F. ) ;
#192 = COORDINATED_UNIVERSAL_TIME_OFFSET ( 5, 0, .BEHIND. ) ;
#193 = DIRECTION ( 'NONE',  ( -0.0000000000000000000, -0.0000000000000000000, 1.000000000000000000 ) ) ;
#194 = CARTESIAN_POINT ( 'NONE',  ( -12.69999999999999900, 1.555301434917138400E-015, 35.72254576870004400 ) ) ;
#195 = EDGE_LOOP ( 'NONE', ( #189, #96, #286, #229 ) ) ;
#196 = EDGE_LOOP ( 'NONE', ( #205, #78, #87 ) ) ;
#197 = DIRECTION ( 'NONE',  ( 1.000000000000000000, 0.0000000000000000000, 0.0000000000000000000 ) ) ;
#198 = EDGE_CURVE ( 'NONE', #300, #245, #85, .T. ) ;
#199 = ADVANCED_FACE ( 'NONE', ( #30 ), #67, .F. ) ;
#200 = LINE ( 'NONE', #227, #256 ) ;
#201 = PERSON_AND_ORGANIZATION ( #254, #121 ) ;
#202 = FACE_OUTER_BOUND ( 'NONE', #175, .T. ) ;
#203 = FACE_OUTER_BOUND ( 'NONE', #196, .T. ) ;
#204 = DIRECTION ( 'NONE',  ( -0.7071067811865431300, 0.0000000000000000000, -0.7071067811865519000 ) ) ;
#205 = ORIENTED_EDGE ( 'NONE', *, *, #219, .F. ) ;
#206 = AXIS2_PLACEMENT_3D ( 'NONE', #221, #233, #217 ) ;
#207 = CIRCLE ( 'NONE', #14, 46.00999999999619700 ) ;
#208 = APPLICATION_PROTOCOL_DEFINITION ( 'international standard', 'config_control_design', 1994, #273 ) ;
#209 = LOCAL_TIME ( 16, 37, 20.00000000000000000, #292 ) ;
#210 = DIRECTION ( 'NONE',  ( -0.0000000000000000000, -0.0000000000000000000, 1.000000000000000000 ) ) ;
#211 = CYLINDRICAL_SURFACE ( 'NONE', #224, 12.69999999999999900 ) ;
#212 = PERSON_AND_ORGANIZATION_ROLE ( 'design_owner' ) ;
#213 = AXIS2_PLACEMENT_3D ( 'NONE', #267, #263, #260 ) ;
#214 = CARTESIAN_POINT ( 'NONE',  ( 0.0000000000000000000, 0.0000000000000000000, -1.895000000000000900 ) ) ;
#215 = DIRECTION ( 'NONE',  ( -0.7071067811865388000, 8.659560562354826900E-017, 0.7071067811865561200 ) ) ;
#216 = ORIENTED_EDGE ( 'NONE', *, *, #5, .T. ) ;
#217 = DIRECTION ( 'NONE',  ( 1.000000000000000000, 0.0000000000000000000, 0.0000000000000000000 ) ) ;
#218 = PERSON_AND_ORGANIZATION ( #254, #121 ) ;
#219 = EDGE_CURVE ( 'NONE', #125, #7, #207, .T. ) ;
#220 = CIRCLE ( 'NONE', #81, 12.70000000000000100 ) ;
#221 = CARTESIAN_POINT ( 'NONE',  ( 0.0000000000000000000, 0.0000000000000000000, 35.72254576870004400 ) ) ;
#222 = MECHANICAL_CONTEXT ( 'NONE', #244, 'mechanical' ) ;
#223 = CARTESIAN_POINT ( 'NONE',  ( 0.0000000000000000000, 0.0000000000000000000, 0.003978226589582134500 ) ) ;
#224 = AXIS2_PLACEMENT_3D ( 'NONE', #54, #63, #74 ) ;
#225 = APPROVAL_PERSON_ORGANIZATION ( #28, #299, #301 ) ;
#226 = DATE_AND_TIME ( #122, #232 ) ;
#227 = CARTESIAN_POINT ( 'NONE',  ( -12.70000000000000100, 0.0000000000000000000, 0.003978226589582134500 ) ) ;
#228 = DIRECTION ( 'NONE',  ( 1.000000000000000000, 0.0000000000000000000, 0.0000000000000000000 ) ) ;
#229 = ORIENTED_EDGE ( 'NONE', *, *, #198, .F. ) ;
#230 = CLOSED_SHELL ( 'NONE', ( #290, #34, #150, #59, #270, #199, #83, #106, #141 ) ) ;
#231 = CONICAL_SURFACE ( 'NONE', #56, 12.70000000000000100, 0.7853981633974420600 ) ;
#232 = LOCAL_TIME ( 16, 37, 20.00000000000000000, #266 ) ;
#233 = DIRECTION ( 'NONE',  ( -0.0000000000000000000, -0.0000000000000000000, 1.000000000000000000 ) ) ;
#234 = DIRECTION ( 'NONE',  ( -1.000000000000000000, 0.0000000000000000000, 0.0000000000000000000 ) ) ;
#235 = AXIS2_PLACEMENT_3D ( 'NONE', #51, #76, #77 ) ;
#236 = ORIENTED_EDGE ( 'NONE', *, *, #82, .T. ) ;
#237 = ORIENTED_EDGE ( 'NONE', *, *, #60, .T. ) ;
#238 = CIRCLE ( 'NONE', #115, 12.55857864376269000 ) ;
#239 = DIRECTION ( 'NONE',  ( 0.0000000000000000000, -1.000000000000000000, 0.0000000000000000000 ) ) ;
#240 = MANIFOLD_SOLID_BREP ( '24983-001-1-solid1', #230 ) ;
#241 = DIRECTION ( 'NONE',  ( -0.0000000000000000000, -0.0000000000000000000, 1.000000000000000000 ) ) ;
#242 = PERSON_AND_ORGANIZATION ( #254, #121 ) ;
#243 = DIRECTION ( 'NONE',  ( 0.0000000000000000000, 0.0000000000000000000, -1.000000000000000000 ) ) ;
#244 = APPLICATION_CONTEXT ( 'configuration controlled 3d designs of mechanical parts and assemblies' ) ;
#245 = VERTEX_POINT ( 'NONE', #119 ) ;
#246 = EDGE_CURVE ( 'NONE', #15, #245, #90, .T. ) ;
#247 = EDGE_CURVE ( 'NONE', #275, #125, #298, .T. ) ;
#248 = CARTESIAN_POINT ( 'NONE',  ( -0.008728229769992476600, 0.0000000000000000000, -44.11499917211100600 ) ) ;
#249 = ORIENTED_EDGE ( 'NONE', *, *, #127, .F. ) ;
#250 = CALENDAR_DATE ( 2015, 28, 4 ) ;
#251 =( LENGTH_UNIT ( ) NAMED_UNIT ( * ) SI_UNIT ( .MILLI., .METRE. ) );
#252 = PERSON_AND_ORGANIZATION_ROLE ( 'creator' ) ;
#253 = AXIS2_PLACEMENT_3D ( 'NONE', #93, #100, #104 ) ;
#254 = PERSON ( 'UNSPECIFIED', 'UNSPECIFIED', 'UNSPECIFIED', ('UNSPECIFIED'), ('UNSPECIFIED'), ('UNSPECIFIED') ) ;
#255 = ORIENTED_EDGE ( 'NONE', *, *, #82, .F. ) ;
#256 = VECTOR ( 'NONE', #204, 1000.000000000000000 ) ;
#257 = CIRCLE ( 'NONE', #235, 12.70000000000000100 ) ;
#258 = CC_DESIGN_DATE_AND_TIME_ASSIGNMENT ( #40, #37, ( #19 ) ) ;
#259 = CC_DESIGN_APPROVAL ( #71, ( #19 ) ) ;
#260 = DIRECTION ( 'NONE',  ( 1.000000000000000000, 0.0000000000000000000, 0.0000000000000000000 ) ) ;
#261 = CARTESIAN_POINT ( 'NONE',  ( 0.0000000000000000000, 0.0000000000000000000, 1.895000000000000000 ) ) ;
#262 = CARTESIAN_POINT ( 'NONE',  ( -12.70000000000000300, 1.555301434917138800E-015, 0.003978226589582134500 ) ) ;
#263 = DIRECTION ( 'NONE',  ( 0.0000000000000000000, 0.0000000000000000000, 1.000000000000000000 ) ) ;
#264 = AXIS2_PLACEMENT_3D ( 'NONE', #129, #134, #123 ) ;
#265 = CARTESIAN_POINT ( 'NONE',  ( 0.0000000000000000000, 0.0000000000000000000, 0.1453995828268953000 ) ) ;
#266 = COORDINATED_UNIVERSAL_TIME_OFFSET ( 5, 0, .BEHIND. ) ;
#267 = CARTESIAN_POINT ( 'NONE',  ( 0.0000000000000000000, 0.0000000000000000000, 0.0000000000000000000 ) ) ;
#268 = ORIENTED_EDGE ( 'NONE', *, *, #33, .F. ) ;
#269 = CARTESIAN_POINT ( 'NONE',  ( 0.0000000000000000000, 0.0000000000000000000, 0.003978226589582134500 ) ) ;
#270 = ADVANCED_FACE ( 'NONE', ( #203 ), #135, .T. ) ;
#271 = FACE_OUTER_BOUND ( 'NONE', #3, .T. ) ;
#272 = CONICAL_SURFACE ( 'NONE', #84, 12.55857864376269000, 0.7853981633974360700 ) ;
#273 = APPLICATION_CONTEXT ( 'configuration controlled 3d designs of mechanical parts and assemblies' ) ;
#274 = PERSON_AND_ORGANIZATION ( #254, #121 ) ;
#275 = VERTEX_POINT ( 'NONE', #36 ) ;
#276 = CC_DESIGN_APPROVAL ( #299, ( #94 ) ) ;
#277 = DESIGN_CONTEXT ( 'detailed design', #273, 'design' ) ;
#278 = ORIENTED_EDGE ( 'NONE', *, *, #105, .F. ) ;
#279 = ORIENTED_EDGE ( 'NONE', *, *, #105, .T. ) ;
#280 = CC_DESIGN_PERSON_AND_ORGANIZATION_ASSIGNMENT ( #218, #212, ( #23 ) ) ;
#281 = CC_DESIGN_DATE_AND_TIME_ASSIGNMENT ( #226, #124, ( #46 ) ) ;
#282 = APPLICATION_PROTOCOL_DEFINITION ( 'international standard', 'config_control_design', 1994, #244 ) ;
#283 = CC_DESIGN_APPROVAL ( #20, ( #46 ) ) ;
#284 = FACE_OUTER_BOUND ( 'NONE', #16, .T. ) ;
#285 =( NAMED_UNIT ( * ) SI_UNIT ( $, .STERADIAN. ) SOLID_ANGLE_UNIT ( ) );
#286 = ORIENTED_EDGE ( 'NONE', *, *, #60, .F. ) ;
#287 = DIRECTION ( 'NONE',  ( -0.0000000000000000000, -0.0000000000000000000, 1.000000000000000000 ) ) ;
#288 = DIRECTION ( 'NONE',  ( -0.0000000000000000000, -0.0000000000000000000, 1.000000000000000000 ) ) ;
#289 = EDGE_CURVE ( 'NONE', #275, #187, #17, .T. ) ;
#290 = ADVANCED_FACE ( 'NONE', ( #284 ), #231, .T. ) ;
#291 = COORDINATED_UNIVERSAL_TIME_OFFSET ( 5, 0, .BEHIND. ) ;
#292 = COORDINATED_UNIVERSAL_TIME_OFFSET ( 5, 0, .BEHIND. ) ;
#293 =( NAMED_UNIT ( * ) PLANE_ANGLE_UNIT ( ) SI_UNIT ( $, .RADIAN. ) );
#294 = DIRECTION ( 'NONE',  ( 1.000000000000000000, 0.0000000000000000000, 0.0000000000000000000 ) ) ;
#295 = AXIS2_PLACEMENT_3D ( 'NONE', #1, #27, #11 ) ;
#296 = ORIENTED_EDGE ( 'NONE', *, *, #6, .F. ) ;
#297 = AXIS2_PLACEMENT_3D ( 'NONE', #176, #178, #197 ) ;
#298 = CIRCLE ( 'NONE', #41, 12.55857864376269000 ) ;
#299 = APPROVAL ( #186, 'UNSPECIFIED' ) ;
#300 = VERTEX_POINT ( 'NONE', #38 ) ;
#301 = APPROVAL_ROLE ( '' ) ;
ENDSEC;
END-ISO-10303-21;
