ISO-10303-21;
HEADER;
FILE_DESCRIPTION (( 'STEP AP203' ),
    '1' );
FILE_NAME ('24977-E0W.STEP',
    '2015-04-28T20:36:53',
    ( 'Admin' ),
    ( '' ),
    'SwSTEP 2.0',
    'SolidWorks 2014',
    '' );
FILE_SCHEMA (( 'CONFIG_CONTROL_DESIGN' ));
ENDSEC;

DATA;
#1 = DIRECTION ( 'NONE',  ( -0.0000000000000000000, -0.0000000000000000000, 1.000000000000000000 ) ) ;
#2 = LOCAL_TIME ( 16, 36, 53.00000000000000000, #154 ) ;
#3 = AXIS2_PLACEMENT_3D ( 'NONE', #77, #104, #286 ) ;
#4 = DIRECTION ( 'NONE',  ( -1.000000000000000000, 1.224646799147353200E-016, 0.0000000000000000000 ) ) ;
#5 = CARTESIAN_POINT ( 'NONE',  ( 0.0000000000000000000, 0.0000000000000000000, -0.3795106372779921100 ) ) ;
#6 = EDGE_CURVE ( 'NONE', #57, #152, #12, .T. ) ;
#7 = EDGE_CURVE ( 'NONE', #13, #172, #89, .T. ) ;
#8 = CARTESIAN_POINT ( 'NONE',  ( 0.0000000000000000000, 0.0000000000000000000, -2.170055327027987000 ) ) ;
#9 = VECTOR ( 'NONE', #219, 1000.000000000000000 ) ;
#10 =( LENGTH_UNIT ( ) NAMED_UNIT ( * ) SI_UNIT ( .MILLI., .METRE. ) );
#11 = VECTOR ( 'NONE', #299, 1000.000000000000000 ) ;
#12 = LINE ( 'NONE', #197, #9 ) ;
#13 = VERTEX_POINT ( 'NONE', #268 ) ;
#14 =( NAMED_UNIT ( * ) PLANE_ANGLE_UNIT ( ) SI_UNIT ( $, .RADIAN. ) );
#15 = ADVANCED_FACE ( 'NONE', ( #245 ), #119, .F. ) ;
#16 = ORIENTED_EDGE ( 'NONE', *, *, #277, .F. ) ;
#17 = TOROIDAL_SURFACE ( 'NONE', #241, 0.003000195677703605700, 9.199999999999995700 ) ;
#18 = PERSON_AND_ORGANIZATION_ROLE ( 'design_owner' ) ;
#19 = AXIS2_PLACEMENT_3D ( 'NONE', #127, #32, #183 ) ;
#20 = CARTESIAN_POINT ( 'NONE',  ( 0.0000000000000000000, 0.0000000000000000000, -0.2380892810406823900 ) ) ;
#21 = DIRECTION ( 'NONE',  ( -0.0000000000000000000, -0.0000000000000000000, 1.000000000000000000 ) ) ;
#22 = DIRECTION ( 'NONE',  ( -0.0000000000000000000, -0.0000000000000000000, 1.000000000000000000 ) ) ;
#23 = LOCAL_TIME ( 16, 36, 53.00000000000000000, #291 ) ;
#24 = CC_DESIGN_APPROVAL ( #257, ( #66 ) ) ;
#25 = ORIENTED_EDGE ( 'NONE', *, *, #276, .T. ) ;
#26 = CARTESIAN_POINT ( 'NONE',  ( 6.349999999999999600, 0.0000000000000000000, -0.3795106372779921100 ) ) ;
#27 = SECURITY_CLASSIFICATION_LEVEL ( 'unclassified' ) ;
#28 = ORIENTED_EDGE ( 'NONE', *, *, #264, .T. ) ;
#29 = AXIS2_PLACEMENT_3D ( 'NONE', #62, #185, #78 ) ;
#30 = APPROVAL_PERSON_ORGANIZATION ( #289, #257, #215 ) ;
#31 = EDGE_LOOP ( 'NONE', ( #208, #25, #211 ) ) ;
#32 = DIRECTION ( 'NONE',  ( -0.0000000000000000000, -0.0000000000000000000, 1.000000000000000000 ) ) ;
#33 = CC_DESIGN_SECURITY_CLASSIFICATION ( #145, ( #66 ) ) ;
#34 = AXIS2_PLACEMENT_3D ( 'NONE', #214, #1, #105 ) ;
#35 = CARTESIAN_POINT ( 'NONE',  ( 0.0000000000000000000, 0.0000000000000000000, -0.3795106372779921100 ) ) ;
#36 = ADVANCED_FACE ( 'NONE', ( #55 ), #252, .T. ) ;
#37 = ADVANCED_FACE ( 'NONE', ( #85 ), #298, .T. ) ;
#38 = CIRCLE ( 'NONE', #275, 6.349999999999999600 ) ;
#39 = CARTESIAN_POINT ( 'NONE',  ( -6.349999999999999600, 7.776507174585692200E-016, -0.3795106372779921100 ) ) ;
#40 = CC_DESIGN_APPROVAL ( #193, ( #136 ) ) ;
#41 = DIRECTION ( 'NONE',  ( -1.000000000000000000, 0.0000000000000000000, 0.0000000000000000000 ) ) ;
#42 = PERSON_AND_ORGANIZATION_ROLE ( 'creator' ) ;
#43 = CC_DESIGN_PERSON_AND_ORGANIZATION_ASSIGNMENT ( #173, #42, ( #66 ) ) ;
#44 = LINE ( 'NONE', #49, #11 ) ;
#45 = FACE_OUTER_BOUND ( 'NONE', #170, .T. ) ;
#46 = ORIENTED_EDGE ( 'NONE', *, *, #6, .F. ) ;
#47 = DIRECTION ( 'NONE',  ( -0.0000000000000000000, -0.0000000000000000000, 1.000000000000000000 ) ) ;
#48 = CALENDAR_DATE ( 2015, 28, 4 ) ;
#49 = CARTESIAN_POINT ( 'NONE',  ( 6.349999999999999600, 0.0000000000000000000, 25.59425907430118500 ) ) ;
#50 = CARTESIAN_POINT ( 'NONE',  ( -6.208578643762690400, 7.603315963338593500E-016, -2.170055327027987000 ) ) ;
#51 = DATE_AND_TIME ( #118, #165 ) ;
#52 = EDGE_CURVE ( 'NONE', #132, #152, #38, .T. ) ;
#53 = EDGE_LOOP ( 'NONE', ( #262, #150, #109 ) ) ;
#54 = DIRECTION ( 'NONE',  ( -1.000000000000000000, 0.0000000000000000000, 0.0000000000000000000 ) ) ;
#55 = FACE_OUTER_BOUND ( 'NONE', #122, .T. ) ;
#56 = COORDINATED_UNIVERSAL_TIME_OFFSET ( 5, 0, .BEHIND. ) ;
#57 = VERTEX_POINT ( 'NONE', #93 ) ;
#58 = FACE_OUTER_BOUND ( 'NONE', #69, .T. ) ;
#59 = VERTEX_POINT ( 'NONE', #26 ) ;
#60 = DATE_AND_TIME ( #48, #236 ) ;
#61 = AXIS2_PLACEMENT_3D ( 'NONE', #84, #142, #233 ) ;
#62 = CARTESIAN_POINT ( 'NONE',  ( 0.0000000000000000000, 0.0000000000000000000, -2.170055327027988800 ) ) ;
#63 = ADVANCED_FACE ( 'NONE', ( #45 ), #177, .T. ) ;
#64 = CC_DESIGN_PERSON_AND_ORGANIZATION_ASSIGNMENT ( #292, #18, ( #143 ) ) ;
#65 = VERTEX_POINT ( 'NONE', #39 ) ;
#66 = PRODUCT_DEFINITION_FORMATION_WITH_SPECIFIED_SOURCE ( 'ANY', '', #143, .NOT_KNOWN. ) ;
#67 = CYLINDRICAL_SURFACE ( 'NONE', #155, 6.349999999999999600 ) ;
#68 = CARTESIAN_POINT ( 'NONE',  ( 0.0000000000000000000, 0.0000000000000000000, -7.030054837833728400 ) ) ;
#69 = EDGE_LOOP ( 'NONE', ( #129, #175, #16, #46 ) ) ;
#70 = PRODUCT_RELATED_PRODUCT_CATEGORY ( 'detail', '', ( #143 ) ) ;
#71 = LINE ( 'NONE', #107, #255 ) ;
#72 = AXIS2_PLACEMENT_3D ( 'NONE', #168, #47, #83 ) ;
#73 = DIRECTION ( 'NONE',  ( 0.0000000000000000000, 0.0000000000000000000, -1.000000000000000000 ) ) ;
#74 = DIRECTION ( 'NONE',  ( 1.000000000000000000, 0.0000000000000000000, 0.0000000000000000000 ) ) ;
#75 = EDGE_LOOP ( 'NONE', ( #198, #254, #261, #232 ) ) ;
#76 = ORIENTED_EDGE ( 'NONE', *, *, #88, .F. ) ;
#77 = CARTESIAN_POINT ( 'NONE',  ( 0.0000000000000000000, 0.0000000000000000000, -2.170055327027987000 ) ) ;
#78 = DIRECTION ( 'NONE',  ( 1.000000000000000000, 0.0000000000000000000, 0.0000000000000000000 ) ) ;
#79 = CARTESIAN_POINT ( 'NONE',  ( 6.349999999999999600, 7.776507174585692200E-016, -0.3795106372779921100 ) ) ;
#80 = COORDINATED_UNIVERSAL_TIME_OFFSET ( 5, 0, .BEHIND. ) ;
#81 = ORIENTED_EDGE ( 'NONE', *, *, #234, .T. ) ;
#82 = CARTESIAN_POINT ( 'NONE',  ( -6.349999999999999600, 7.776507174585692200E-016, -2.028633970790677300 ) ) ;
#83 = DIRECTION ( 'NONE',  ( 1.000000000000000000, 0.0000000000000000000, 0.0000000000000000000 ) ) ;
#84 = CARTESIAN_POINT ( 'NONE',  ( 0.003000195677703605700, 0.0000000000000000000, -7.030054837833728400 ) ) ;
#85 = FACE_OUTER_BOUND ( 'NONE', #226, .T. ) ;
#86 = APPROVAL_DATE_TIME ( #125, #257 ) ;
#87 = APPROVAL_ROLE ( '' ) ;
#88 = EDGE_CURVE ( 'NONE', #65, #59, #90, .T. ) ;
#89 = CIRCLE ( 'NONE', #61, 9.199999999999997500 ) ;
#90 = CIRCLE ( 'NONE', #231, 6.349999999999999600 ) ;
#91 = CONICAL_SURFACE ( 'NONE', #225, 6.349999999999999600, 0.7853981633974452800 ) ;
#92 = APPROVAL_PERSON_ORGANIZATION ( #265, #193, #87 ) ;
#93 = CARTESIAN_POINT ( 'NONE',  ( 6.208578643762690400, 0.0000000000000000000, -2.170055327027987000 ) ) ;
#94 = DIRECTION ( 'NONE',  ( -0.7071067811865453500, 0.0000000000000000000, -0.7071067811865496800 ) ) ;
#95 = CC_DESIGN_PERSON_AND_ORGANIZATION_ASSIGNMENT ( #259, #121, ( #66 ) ) ;
#96 =( GEOMETRIC_REPRESENTATION_CONTEXT ( 3 ) GLOBAL_UNCERTAINTY_ASSIGNED_CONTEXT ( ( #188 ) ) GLOBAL_UNIT_ASSIGNED_CONTEXT ( ( #10, #14, #267 ) ) REPRESENTATION_CONTEXT ( 'NONE', 'WORKASPACE' ) );
#97 = CARTESIAN_POINT ( 'NONE',  ( 0.0000000000000000000, 0.0000000000000000000, 0.0000000000000000000 ) ) ;
#98 = CARTESIAN_POINT ( 'NONE',  ( 0.0000000000000000000, 0.0000000000000000000, -2.028633970790677300 ) ) ;
#99 = LINE ( 'NONE', #50, #244 ) ;
#100 = COORDINATED_UNIVERSAL_TIME_OFFSET ( 5, 0, .BEHIND. ) ;
#101 = FACE_OUTER_BOUND ( 'NONE', #53, .T. ) ;
#102 = AXIS2_PLACEMENT_3D ( 'NONE', #97, #269, #260 ) ;
#103 = PERSON_AND_ORGANIZATION_ROLE ( 'creator' ) ;
#104 = DIRECTION ( 'NONE',  ( -0.0000000000000000000, -0.0000000000000000000, 1.000000000000000000 ) ) ;
#105 = DIRECTION ( 'NONE',  ( 1.000000000000000000, 0.0000000000000000000, 0.0000000000000000000 ) ) ;
#106 = DATE_TIME_ROLE ( 'creation_date' ) ;
#107 = CARTESIAN_POINT ( 'NONE',  ( -6.349999999999999600, 7.776507174585692200E-016, 25.59425907430118500 ) ) ;
#108 = EDGE_LOOP ( 'NONE', ( #247, #148 ) ) ;
#109 = ORIENTED_EDGE ( 'NONE', *, *, #7, .T. ) ;
#110 = ADVANCED_BREP_SHAPE_REPRESENTATION ( '24977-E0W', ( #187, #102 ), #96 ) ;
#111 = ORIENTED_EDGE ( 'NONE', *, *, #52, .F. ) ;
#112 = DIRECTION ( 'NONE',  ( -0.0000000000000000000, -0.0000000000000000000, 1.000000000000000000 ) ) ;
#113 = PERSON_AND_ORGANIZATION ( #131, #124 ) ;
#114 = PERSON_AND_ORGANIZATION_ROLE ( 'classification_officer' ) ;
#115 = EDGE_LOOP ( 'NONE', ( #200, #161, #81, #76 ) ) ;
#116 = EDGE_CURVE ( 'NONE', #57, #149, #192, .T. ) ;
#117 = CIRCLE ( 'NONE', #287, 6.208578643762690400 ) ;
#118 = CALENDAR_DATE ( 2015, 28, 4 ) ;
#119 = PLANE ( 'NONE',  #29 ) ;
#120 = CC_DESIGN_PERSON_AND_ORGANIZATION_ASSIGNMENT ( #176, #103, ( #136 ) ) ;
#121 = PERSON_AND_ORGANIZATION_ROLE ( 'design_supplier' ) ;
#122 = EDGE_LOOP ( 'NONE', ( #210, #249, #130, #162 ) ) ;
#123 = APPROVAL_PERSON_ORGANIZATION ( #164, #282, #227 ) ;
#124 = ORGANIZATION ( 'UNSPECIFIED', 'UNSPECIFIED', '' ) ;
#125 = DATE_AND_TIME ( #171, #2 ) ;
#126 = ORIENTED_EDGE ( 'NONE', *, *, #251, .T. ) ;
#127 = CARTESIAN_POINT ( 'NONE',  ( 0.0000000000000000000, 0.0000000000000000000, -2.170055327027987000 ) ) ;
#128 = DIRECTION ( 'NONE',  ( 0.7071067811865453500, 8.659560562354907000E-017, -0.7071067811865496800 ) ) ;
#129 = ORIENTED_EDGE ( 'NONE', *, *, #116, .T. ) ;
#130 = ORIENTED_EDGE ( 'NONE', *, *, #159, .T. ) ;
#131 = PERSON ( 'UNSPECIFIED', 'UNSPECIFIED', 'UNSPECIFIED', ('UNSPECIFIED'), ('UNSPECIFIED'), ('UNSPECIFIED') ) ;
#132 = VERTEX_POINT ( 'NONE', #82 ) ;
#133 = EDGE_CURVE ( 'NONE', #149, #132, #99, .T. ) ;
#134 = EDGE_CURVE ( 'NONE', #13, #178, #278, .T. ) ;
#135 = CIRCLE ( 'NONE', #72, 6.349999999999999600 ) ;
#136 = PRODUCT_DEFINITION ( 'UNKNOWN', '', #66, #240 ) ;
#137 = DIRECTION ( 'NONE',  ( -0.0000000000000000000, -0.0000000000000000000, 1.000000000000000000 ) ) ;
#138 = AXIS2_PLACEMENT_3D ( 'NONE', #221, #271, #272 ) ;
#139 = DIRECTION ( 'NONE',  ( -0.0000000000000000000, -0.0000000000000000000, 1.000000000000000000 ) ) ;
#140 = APPROVAL_STATUS ( 'not_yet_approved' ) ;
#141 = CC_DESIGN_PERSON_AND_ORGANIZATION_ASSIGNMENT ( #113, #114, ( #145 ) ) ;
#142 = DIRECTION ( 'NONE',  ( 0.0000000000000000000, -1.000000000000000000, 0.0000000000000000000 ) ) ;
#143 = PRODUCT ( '24977-E0W', '24977-E0W', '', ( #181 ) ) ;
#144 = DIRECTION ( 'NONE',  ( 1.224646799147353200E-016, 1.000000000000000000, 0.0000000000000000000 ) ) ;
#145 = SECURITY_CLASSIFICATION ( '', '', #27 ) ;
#146 = FACE_OUTER_BOUND ( 'NONE', #115, .T. ) ;
#147 = AXIS2_PLACEMENT_3D ( 'NONE', #224, #144, #4 ) ;
#148 = ORIENTED_EDGE ( 'NONE', *, *, #251, .F. ) ;
#149 = VERTEX_POINT ( 'NONE', #205 ) ;
#150 = ORIENTED_EDGE ( 'NONE', *, *, #250, .T. ) ;
#151 = CARTESIAN_POINT ( 'NONE',  ( 0.0000000000000000000, 0.0000000000000000000, -0.2380892810406823900 ) ) ;
#152 = VERTEX_POINT ( 'NONE', #166 ) ;
#153 = CARTESIAN_POINT ( 'NONE',  ( 0.0000000000000000000, 0.0000000000000000000, -0.3795106372779921100 ) ) ;
#154 = COORDINATED_UNIVERSAL_TIME_OFFSET ( 5, 0, .BEHIND. ) ;
#155 = AXIS2_PLACEMENT_3D ( 'NONE', #248, #186, #295 ) ;
#156 = AXIS2_PLACEMENT_3D ( 'NONE', #5, #73, #54 ) ;
#157 = DIRECTION ( 'NONE',  ( 1.000000000000000000, 0.0000000000000000000, 0.0000000000000000000 ) ) ;
#158 = ADVANCED_FACE ( 'NONE', ( #228 ), #17, .T. ) ;
#159 = EDGE_CURVE ( 'NONE', #59, #65, #135, .T. ) ;
#160 = CIRCLE ( 'NONE', #279, 6.208578643762691300 ) ;
#161 = ORIENTED_EDGE ( 'NONE', *, *, #52, .T. ) ;
#162 = ORIENTED_EDGE ( 'NONE', *, *, #297, .F. ) ;
#163 = DIRECTION ( 'NONE',  ( -0.7071067811865474600, 8.659560562354931600E-017, 0.7071067811865475700 ) ) ;
#164 = PERSON_AND_ORGANIZATION ( #131, #124 ) ;
#165 = LOCAL_TIME ( 16, 36, 53.00000000000000000, #56 ) ;
#166 = CARTESIAN_POINT ( 'NONE',  ( 6.349999999999999600, 0.0000000000000000000, -2.028633970790677300 ) ) ;
#167 = DIRECTION ( 'NONE',  ( -0.0000000000000000000, -0.0000000000000000000, 1.000000000000000000 ) ) ;
#168 = CARTESIAN_POINT ( 'NONE',  ( 0.0000000000000000000, 0.0000000000000000000, -0.3795106372779921100 ) ) ;
#169 = ORIENTED_EDGE ( 'NONE', *, *, #6, .T. ) ;
#170 = EDGE_LOOP ( 'NONE', ( #213, #28, #285, #207 ) ) ;
#171 = CALENDAR_DATE ( 2015, 28, 4 ) ;
#172 = VERTEX_POINT ( 'NONE', #174 ) ;
#173 = PERSON_AND_ORGANIZATION ( #131, #124 ) ;
#174 = CARTESIAN_POINT ( 'NONE',  ( 0.0000000000000000000, 0.0000000000000000000, 2.169944672972011500 ) ) ;
#175 = ORIENTED_EDGE ( 'NONE', *, *, #133, .T. ) ;
#176 = PERSON_AND_ORGANIZATION ( #131, #124 ) ;
#177 = CYLINDRICAL_SURFACE ( 'NONE', #34, 6.349999999999999600 ) ;
#178 = VERTEX_POINT ( 'NONE', #301 ) ;
#179 = APPROVAL_DATE_TIME ( #229, #282 ) ;
#180 = APPLICATION_CONTEXT ( 'configuration controlled 3d designs of mechanical parts and assemblies' ) ;
#181 = MECHANICAL_CONTEXT ( 'NONE', #203, 'mechanical' ) ;
#182 = AXIS2_PLACEMENT_3D ( 'NONE', #98, #167, #209 ) ;
#183 = DIRECTION ( 'NONE',  ( 1.000000000000000000, 0.0000000000000000000, 0.0000000000000000000 ) ) ;
#184 = DATE_AND_TIME ( #212, #199 ) ;
#185 = DIRECTION ( 'NONE',  ( 0.0000000000000000000, -0.0000000000000000000, 1.000000000000000000 ) ) ;
#186 = DIRECTION ( 'NONE',  ( -0.0000000000000000000, -0.0000000000000000000, 1.000000000000000000 ) ) ;
#187 = MANIFOLD_SOLID_BREP ( '24977-001-1-solid1', #201 ) ;
#188 = UNCERTAINTY_MEASURE_WITH_UNIT (LENGTH_MEASURE( 1.000000000000000100E-005 ), #10, 'distance_accuracy_value', 'NONE');
#189 = ADVANCED_FACE ( 'NONE', ( #146 ), #67, .T. ) ;
#190 = EDGE_CURVE ( 'NONE', #13, #59, #293, .T. ) ;
#191 = DIRECTION ( 'NONE',  ( 0.0000000000000000000, 0.0000000000000000000, -1.000000000000000000 ) ) ;
#192 = CIRCLE ( 'NONE', #284, 6.208578643762690400 ) ;
#193 = APPROVAL ( #140, 'UNSPECIFIED' ) ;
#194 = DIRECTION ( 'NONE',  ( -0.0000000000000000000, -0.0000000000000000000, 1.000000000000000000 ) ) ;
#195 = CARTESIAN_POINT ( 'NONE',  ( 0.0000000000000000000, 0.0000000000000000000, -2.170055327027987000 ) ) ;
#196 = CALENDAR_DATE ( 2015, 28, 4 ) ;
#197 = CARTESIAN_POINT ( 'NONE',  ( 6.208578643762690400, 0.0000000000000000000, -2.170055327027987000 ) ) ;
#198 = ORIENTED_EDGE ( 'NONE', *, *, #190, .F. ) ;
#199 = LOCAL_TIME ( 16, 36, 53.00000000000000000, #80 ) ;
#200 = ORIENTED_EDGE ( 'NONE', *, *, #264, .F. ) ;
#201 = CLOSED_SHELL ( 'NONE', ( #36, #63, #216, #158, #217, #15, #37, #189, #296 ) ) ;
#202 = APPLICATION_PROTOCOL_DEFINITION ( 'international standard', 'config_control_design', 1994, #203 ) ;
#203 = APPLICATION_CONTEXT ( 'configuration controlled 3d designs of mechanical parts and assemblies' ) ;
#204 = LINE ( 'NONE', #242, #220 ) ;
#205 = CARTESIAN_POINT ( 'NONE',  ( -6.208578643762690400, 7.689911568962142300E-016, -2.170055327027987000 ) ) ;
#206 = APPROVAL_STATUS ( 'not_yet_approved' ) ;
#207 = ORIENTED_EDGE ( 'NONE', *, *, #234, .F. ) ;
#208 = ORIENTED_EDGE ( 'NONE', *, *, #134, .T. ) ;
#209 = DIRECTION ( 'NONE',  ( 1.000000000000000000, 0.0000000000000000000, 0.0000000000000000000 ) ) ;
#210 = ORIENTED_EDGE ( 'NONE', *, *, #134, .F. ) ;
#211 = ORIENTED_EDGE ( 'NONE', *, *, #7, .F. ) ;
#212 = CALENDAR_DATE ( 2015, 28, 4 ) ;
#213 = ORIENTED_EDGE ( 'NONE', *, *, #277, .T. ) ;
#214 = CARTESIAN_POINT ( 'NONE',  ( 0.0000000000000000000, 0.0000000000000000000, 25.59425907430118500 ) ) ;
#215 = APPROVAL_ROLE ( '' ) ;
#216 = ADVANCED_FACE ( 'NONE', ( #58 ), #218, .T. ) ;
#217 = ADVANCED_FACE ( 'NONE', ( #101 ), #235, .T. ) ;
#218 = CONICAL_SURFACE ( 'NONE', #19, 6.208578643762690400, 0.7853981633974482800 ) ;
#219 = DIRECTION ( 'NONE',  ( 0.7071067811865474600, 0.0000000000000000000, 0.7071067811865475700 ) ) ;
#220 = VECTOR ( 'NONE', #94, 1000.000000000000000 ) ;
#221 = CARTESIAN_POINT ( 'NONE',  ( 0.0000000000000000000, 0.0000000000000000000, -7.030054837833728400 ) ) ;
#222 = CC_DESIGN_DATE_AND_TIME_ASSIGNMENT ( #51, #106, ( #136 ) ) ;
#223 = AXIS2_PLACEMENT_3D ( 'NONE', #151, #22, #74 ) ;
#224 = CARTESIAN_POINT ( 'NONE',  ( -0.003000195677703605700, 3.674180033515444900E-019, -7.030054837833728400 ) ) ;
#225 = AXIS2_PLACEMENT_3D ( 'NONE', #153, #191, #41 ) ;
#226 = EDGE_LOOP ( 'NONE', ( #283, #126, #169, #111 ) ) ;
#227 = APPROVAL_ROLE ( '' ) ;
#228 = FACE_OUTER_BOUND ( 'NONE', #31, .T. ) ;
#229 = DATE_AND_TIME ( #196, #23 ) ;
#230 = DATE_TIME_ROLE ( 'classification_date' ) ;
#231 = AXIS2_PLACEMENT_3D ( 'NONE', #35, #263, #280 ) ;
#232 = ORIENTED_EDGE ( 'NONE', *, *, #88, .T. ) ;
#233 = DIRECTION ( 'NONE',  ( 0.0000000000000000000, 0.0000000000000000000, -1.000000000000000000 ) ) ;
#234 = EDGE_CURVE ( 'NONE', #152, #59, #44, .T. ) ;
#235 = TOROIDAL_SURFACE ( 'NONE', #138, 0.003000195677703605700, 9.199999999999995700 ) ;
#236 = LOCAL_TIME ( 16, 36, 53.00000000000000000, #100 ) ;
#237 = DIRECTION ( 'NONE',  ( 1.000000000000000000, 0.0000000000000000000, 0.0000000000000000000 ) ) ;
#238 = DIRECTION ( 'NONE',  ( 1.000000000000000000, 0.0000000000000000000, 0.0000000000000000000 ) ) ;
#239 = CC_DESIGN_DATE_AND_TIME_ASSIGNMENT ( #184, #230, ( #145 ) ) ;
#240 = DESIGN_CONTEXT ( 'detailed design', #180, 'design' ) ;
#241 = AXIS2_PLACEMENT_3D ( 'NONE', #68, #139, #294 ) ;
#242 = CARTESIAN_POINT ( 'NONE',  ( -6.349999999999999600, 0.0000000000000000000, -0.3795106372779921100 ) ) ;
#243 = APPLICATION_PROTOCOL_DEFINITION ( 'international standard', 'config_control_design', 1994, #180 ) ;
#244 = VECTOR ( 'NONE', #163, 1000.000000000000000 ) ;
#245 = FACE_OUTER_BOUND ( 'NONE', #108, .T. ) ;
#246 = CARTESIAN_POINT ( 'NONE',  ( 0.0000000000000000000, 0.0000000000000000000, -2.028633970790677300 ) ) ;
#247 = ORIENTED_EDGE ( 'NONE', *, *, #116, .F. ) ;
#248 = CARTESIAN_POINT ( 'NONE',  ( 0.0000000000000000000, 0.0000000000000000000, 25.59425907430118500 ) ) ;
#249 = ORIENTED_EDGE ( 'NONE', *, *, #190, .T. ) ;
#250 = EDGE_CURVE ( 'NONE', #178, #13, #160, .T. ) ;
#251 = EDGE_CURVE ( 'NONE', #149, #57, #117, .T. ) ;
#252 = CONICAL_SURFACE ( 'NONE', #156, 6.349999999999999600, 0.7853981633974452800 ) ;
#253 = CIRCLE ( 'NONE', #182, 6.349999999999999600 ) ;
#254 = ORIENTED_EDGE ( 'NONE', *, *, #250, .F. ) ;
#255 = VECTOR ( 'NONE', #137, 1000.000000000000000 ) ;
#256 = PRODUCT_DEFINITION_SHAPE ( 'NONE', 'NONE',  #136 ) ;
#257 = APPROVAL ( #273, 'UNSPECIFIED' ) ;
#258 = FACE_OUTER_BOUND ( 'NONE', #75, .T. ) ;
#259 = PERSON_AND_ORGANIZATION ( #131, #124 ) ;
#260 = DIRECTION ( 'NONE',  ( 1.000000000000000000, 0.0000000000000000000, 0.0000000000000000000 ) ) ;
#261 = ORIENTED_EDGE ( 'NONE', *, *, #297, .T. ) ;
#262 = ORIENTED_EDGE ( 'NONE', *, *, #276, .F. ) ;
#263 = DIRECTION ( 'NONE',  ( -0.0000000000000000000, -0.0000000000000000000, 1.000000000000000000 ) ) ;
#264 = EDGE_CURVE ( 'NONE', #132, #65, #71, .T. ) ;
#265 = PERSON_AND_ORGANIZATION ( #131, #124 ) ;
#266 = CC_DESIGN_APPROVAL ( #282, ( #145 ) ) ;
#267 =( NAMED_UNIT ( * ) SI_UNIT ( $, .STERADIAN. ) SOLID_ANGLE_UNIT ( ) );
#268 = CARTESIAN_POINT ( 'NONE',  ( 6.208578643762690400, 0.0000000000000000000, -0.2380892810406823900 ) ) ;
#269 = DIRECTION ( 'NONE',  ( 0.0000000000000000000, 0.0000000000000000000, 1.000000000000000000 ) ) ;
#270 = VECTOR ( 'NONE', #128, 1000.000000000000000 ) ;
#271 = DIRECTION ( 'NONE',  ( -0.0000000000000000000, -0.0000000000000000000, 1.000000000000000000 ) ) ;
#272 = DIRECTION ( 'NONE',  ( 1.000000000000000000, 0.0000000000000000000, 0.0000000000000000000 ) ) ;
#273 = APPROVAL_STATUS ( 'not_yet_approved' ) ;
#274 = SHAPE_DEFINITION_REPRESENTATION ( #256, #110 ) ;
#275 = AXIS2_PLACEMENT_3D ( 'NONE', #246, #290, #281 ) ;
#276 = EDGE_CURVE ( 'NONE', #178, #172, #300, .T. ) ;
#277 = EDGE_CURVE ( 'NONE', #152, #132, #253, .T. ) ;
#278 = CIRCLE ( 'NONE', #223, 6.208578643762691300 ) ;
#279 = AXIS2_PLACEMENT_3D ( 'NONE', #20, #112, #157 ) ;
#280 = DIRECTION ( 'NONE',  ( 1.000000000000000000, 0.0000000000000000000, 0.0000000000000000000 ) ) ;
#281 = DIRECTION ( 'NONE',  ( 1.000000000000000000, 0.0000000000000000000, 0.0000000000000000000 ) ) ;
#282 = APPROVAL ( #206, 'UNSPECIFIED' ) ;
#283 = ORIENTED_EDGE ( 'NONE', *, *, #133, .F. ) ;
#284 = AXIS2_PLACEMENT_3D ( 'NONE', #195, #21, #238 ) ;
#285 = ORIENTED_EDGE ( 'NONE', *, *, #159, .F. ) ;
#286 = DIRECTION ( 'NONE',  ( 1.000000000000000000, 0.0000000000000000000, 0.0000000000000000000 ) ) ;
#287 = AXIS2_PLACEMENT_3D ( 'NONE', #8, #194, #237 ) ;
#288 = APPROVAL_DATE_TIME ( #60, #193 ) ;
#289 = PERSON_AND_ORGANIZATION ( #131, #124 ) ;
#290 = DIRECTION ( 'NONE',  ( -0.0000000000000000000, -0.0000000000000000000, 1.000000000000000000 ) ) ;
#291 = COORDINATED_UNIVERSAL_TIME_OFFSET ( 5, 0, .BEHIND. ) ;
#292 = PERSON_AND_ORGANIZATION ( #131, #124 ) ;
#293 = LINE ( 'NONE', #79, #270 ) ;
#294 = DIRECTION ( 'NONE',  ( 1.000000000000000000, 0.0000000000000000000, 0.0000000000000000000 ) ) ;
#295 = DIRECTION ( 'NONE',  ( 1.000000000000000000, 0.0000000000000000000, 0.0000000000000000000 ) ) ;
#296 = ADVANCED_FACE ( 'NONE', ( #258 ), #91, .T. ) ;
#297 = EDGE_CURVE ( 'NONE', #178, #65, #204, .T. ) ;
#298 = CONICAL_SURFACE ( 'NONE', #3, 6.208578643762690400, 0.7853981633974482800 ) ;
#299 = DIRECTION ( 'NONE',  ( -0.0000000000000000000, -0.0000000000000000000, 1.000000000000000000 ) ) ;
#300 = CIRCLE ( 'NONE', #147, 9.199999999999995700 ) ;
#301 = CARTESIAN_POINT ( 'NONE',  ( -6.208578643762690400, 7.603315963338593500E-016, -0.2380892810406823900 ) ) ;
ENDSEC;
END-ISO-10303-21;
