ISO-10303-21;
HEADER;
FILE_DESCRIPTION (( 'STEP AP203' ),
    '1' );
FILE_NAME ('Web Model 47944_13307.step',
    '2020-11-03T22:01:51',
    ( '' ),
    ( '' ),
    'SwSTEP 2.0',
    'SolidWorks 2018',
    '' );
FILE_SCHEMA (( 'CONFIG_CONTROL_DESIGN' ));
ENDSEC;

DATA;
#1 = FACE_OUTER_BOUND ( 'NONE', #161, .T. ) ;
#2 = AXIS2_PLACEMENT_3D ( 'NONE', #12, #14, #198 ) ;
#3 = COORDINATED_UNIVERSAL_TIME_OFFSET ( 5, 0, .BEHIND. ) ;
#4 = CC_DESIGN_PERSON_AND_ORGANIZATION_ASSIGNMENT ( #193, #100, ( #73 ) ) ;
#5 = CARTESIAN_POINT ( 'NONE',  ( 50.00000000000000000, 0.0000000000000000000, -4.000000000000000000 ) ) ;
#6 = DIRECTION ( 'NONE',  ( -1.000000000000000000, 0.0000000000000000000, 0.0000000000000000000 ) ) ;
#7 = APPROVAL_STATUS ( 'not_yet_approved' ) ;
#8 = APPROVAL_ROLE ( '' ) ;
#9 = ADVANCED_FACE ( 'NONE', ( #1 ), #105, .T. ) ;
#10 = CARTESIAN_POINT ( 'NONE',  ( 0.0000000000000000000, 50.00000000000000000, -4.000000000000000000 ) ) ;
#11 = ADVANCED_FACE ( 'NONE', ( #221 ), #104, .T. ) ;
#12 = CARTESIAN_POINT ( 'NONE',  ( 0.0000000000000000000, 50.00000000000000000, -4.000000000000000000 ) ) ;
#13 =( NAMED_UNIT ( * ) SI_UNIT ( $, .STERADIAN. ) SOLID_ANGLE_UNIT ( ) );
#14 = DIRECTION ( 'NONE',  ( 0.0000000000000000000, 1.000000000000000000, 0.0000000000000000000 ) ) ;
#15 = CALENDAR_DATE ( 2020, 3, 11 ) ;
#16 = VECTOR ( 'NONE', #195, 1000.000000000000000 ) ;
#17 = ADVANCED_FACE ( 'NONE', ( #206 ), #124, .T. ) ;
#18 = CARTESIAN_POINT ( 'NONE',  ( 0.0000000000000000000, 0.0000000000000000000, 0.0000000000000000000 ) ) ;
#19 = AXIS2_PLACEMENT_3D ( 'NONE', #175, #123, #204 ) ;
#20 = APPROVAL_PERSON_ORGANIZATION ( #58, #36, #192 ) ;
#21 = VECTOR ( 'NONE', #86, 1000.000000000000000 ) ;
#22 = ADVANCED_BREP_SHAPE_REPRESENTATION ( 'Web Model 47944_13307', ( #137, #122 ), #43 ) ;
#23 = CC_DESIGN_PERSON_AND_ORGANIZATION_ASSIGNMENT ( #94, #178, ( #166 ) ) ;
#24 = EDGE_LOOP ( 'NONE', ( #74, #223, #135, #93 ) ) ;
#25 = PRODUCT_DEFINITION_SHAPE ( 'NONE', 'NONE',  #114 ) ;
#26 = ORIENTED_EDGE ( 'NONE', *, *, #59, .F. ) ;
#27 = DIRECTION ( 'NONE',  ( -0.0000000000000000000, -1.000000000000000000, -0.0000000000000000000 ) ) ;
#28 = CARTESIAN_POINT ( 'NONE',  ( 50.00000000000000000, 50.00000000000000000, 0.0000000000000000000 ) ) ;
#29 = LINE ( 'NONE', #197, #92 ) ;
#30 = APPLICATION_CONTEXT ( 'configuration controlled 3d designs of mechanical parts and assemblies' ) ;
#31 = VERTEX_POINT ( 'NONE', #156 ) ;
#32 =( LENGTH_UNIT ( ) NAMED_UNIT ( * ) SI_UNIT ( .MILLI., .METRE. ) );
#33 = SECURITY_CLASSIFICATION_LEVEL ( 'unclassified' ) ;
#34 = DIRECTION ( 'NONE',  ( 0.0000000000000000000, 0.0000000000000000000, -1.000000000000000000 ) ) ;
#35 = ADVANCED_FACE ( 'NONE', ( #115 ), #85, .T. ) ;
#36 = APPROVAL ( #87, 'UNSPECIFIED' ) ;
#37 = PERSON_AND_ORGANIZATION_ROLE ( 'design_owner' ) ;
#38 = ORGANIZATION ( 'UNSPECIFIED', 'UNSPECIFIED', '' ) ;
#39 = UNCERTAINTY_MEASURE_WITH_UNIT (LENGTH_MEASURE( 1.000000000000000082E-05 ), #32, 'distance_accuracy_value', 'NONE');
#40 = PERSON_AND_ORGANIZATION ( #171, #38 ) ;
#41 = EDGE_LOOP ( 'NONE', ( #170, #26, #118, #63 ) ) ;
#42 = VERTEX_POINT ( 'NONE', #46 ) ;
#43 =( GEOMETRIC_REPRESENTATION_CONTEXT ( 3 ) GLOBAL_UNCERTAINTY_ASSIGNED_CONTEXT ( ( #39 ) ) GLOBAL_UNIT_ASSIGNED_CONTEXT ( ( #32, #49, #13 ) ) REPRESENTATION_CONTEXT ( 'NONE', 'WORKASPACE' ) );
#44 = LOCAL_TIME ( 17, 1, 51.00000000000000000, #134 ) ;
#45 = CC_DESIGN_DATE_AND_TIME_ASSIGNMENT ( #158, #226, ( #166 ) ) ;
#46 = CARTESIAN_POINT ( 'NONE',  ( 0.0000000000000000000, 0.0000000000000000000, 0.0000000000000000000 ) ) ;
#47 = VECTOR ( 'NONE', #83, 1000.000000000000000 ) ;
#48 = VECTOR ( 'NONE', #109, 1000.000000000000000 ) ;
#49 =( NAMED_UNIT ( * ) PLANE_ANGLE_UNIT ( ) SI_UNIT ( $, .RADIAN. ) );
#50 = CARTESIAN_POINT ( 'NONE',  ( 0.0000000000000000000, 0.0000000000000000000, -4.000000000000000000 ) ) ;
#51 = PERSON_AND_ORGANIZATION_ROLE ( 'design_supplier' ) ;
#52 = ADVANCED_FACE ( 'NONE', ( #169 ), #53, .T. ) ;
#53 = PLANE ( 'NONE',  #2 ) ;
#54 = ORIENTED_EDGE ( 'NONE', *, *, #64, .T. ) ;
#55 = DIRECTION ( 'NONE',  ( 0.0000000000000000000, 1.000000000000000000, 0.0000000000000000000 ) ) ;
#56 = AXIS2_PLACEMENT_3D ( 'NONE', #215, #138, #200 ) ;
#57 = CC_DESIGN_APPROVAL ( #36, ( #73 ) ) ;
#58 = PERSON_AND_ORGANIZATION ( #171, #38 ) ;
#59 = EDGE_CURVE ( 'NONE', #125, #220, #225, .T. ) ;
#60 = ORIENTED_EDGE ( 'NONE', *, *, #69, .T. ) ;
#61 = CARTESIAN_POINT ( 'NONE',  ( 0.0000000000000000000, 50.00000000000000000, 0.0000000000000000000 ) ) ;
#62 = LINE ( 'NONE', #97, #163 ) ;
#63 = ORIENTED_EDGE ( 'NONE', *, *, #79, .F. ) ;
#64 = EDGE_CURVE ( 'NONE', #31, #96, #213, .T. ) ;
#65 = DIRECTION ( 'NONE',  ( 0.0000000000000000000, 0.0000000000000000000, 1.000000000000000000 ) ) ;
#66 = CC_DESIGN_SECURITY_CLASSIFICATION ( #166, ( #73 ) ) ;
#67 = DIRECTION ( 'NONE',  ( 0.0000000000000000000, 0.0000000000000000000, 1.000000000000000000 ) ) ;
#68 = DIRECTION ( 'NONE',  ( -1.000000000000000000, -0.0000000000000000000, -0.0000000000000000000 ) ) ;
#69 = EDGE_CURVE ( 'NONE', #125, #128, #76, .T. ) ;
#70 = PERSON_AND_ORGANIZATION ( #171, #38 ) ;
#71 = ORIENTED_EDGE ( 'NONE', *, *, #191, .T. ) ;
#72 = ORIENTED_EDGE ( 'NONE', *, *, #191, .F. ) ;
#73 = PRODUCT_DEFINITION_FORMATION_WITH_SPECIFIED_SOURCE ( 'ANY', '', #99, .NOT_KNOWN. ) ;
#74 = ORIENTED_EDGE ( 'NONE', *, *, #186, .F. ) ;
#75 = COORDINATED_UNIVERSAL_TIME_OFFSET ( 5, 0, .BEHIND. ) ;
#76 = LINE ( 'NONE', #230, #21 ) ;
#77 = VERTEX_POINT ( 'NONE', #50 ) ;
#78 = CC_DESIGN_APPROVAL ( #142, ( #114 ) ) ;
#79 = EDGE_CURVE ( 'NONE', #77, #31, #80, .T. ) ;
#80 = LINE ( 'NONE', #214, #16 ) ;
#81 = APPLICATION_PROTOCOL_DEFINITION ( 'international standard', 'config_control_design', 1994, #153 ) ;
#82 = DIRECTION ( 'NONE',  ( 1.000000000000000000, 0.0000000000000000000, 0.0000000000000000000 ) ) ;
#83 = DIRECTION ( 'NONE',  ( -1.000000000000000000, -0.0000000000000000000, -0.0000000000000000000 ) ) ;
#84 = COORDINATED_UNIVERSAL_TIME_OFFSET ( 5, 0, .BEHIND. ) ;
#85 = PLANE ( 'NONE',  #19 ) ;
#86 = DIRECTION ( 'NONE',  ( 0.0000000000000000000, 0.0000000000000000000, 1.000000000000000000 ) ) ;
#87 = APPROVAL_STATUS ( 'not_yet_approved' ) ;
#88 = LOCAL_TIME ( 17, 1, 51.00000000000000000, #75 ) ;
#89 = LINE ( 'NONE', #179, #217 ) ;
#90 = VERTEX_POINT ( 'NONE', #61 ) ;
#91 = APPROVAL ( #7, 'UNSPECIFIED' ) ;
#92 = VECTOR ( 'NONE', #232, 1000.000000000000000 ) ;
#93 = ORIENTED_EDGE ( 'NONE', *, *, #119, .T. ) ;
#94 = PERSON_AND_ORGANIZATION ( #171, #38 ) ;
#95 = CC_DESIGN_PERSON_AND_ORGANIZATION_ASSIGNMENT ( #237, #37, ( #99 ) ) ;
#96 = VERTEX_POINT ( 'NONE', #212 ) ;
#97 = CARTESIAN_POINT ( 'NONE',  ( 0.0000000000000000000, 0.0000000000000000000, -4.000000000000000000 ) ) ;
#98 = CARTESIAN_POINT ( 'NONE',  ( 0.0000000000000000000, 50.00000000000000000, 0.0000000000000000000 ) ) ;
#99 = PRODUCT ( 'Web Model 47944_13307', 'Web Model 47944_13307', '', ( #231 ) ) ;
#100 = PERSON_AND_ORGANIZATION_ROLE ( 'creator' ) ;
#101 = LINE ( 'NONE', #126, #189 ) ;
#102 = APPROVAL_STATUS ( 'not_yet_approved' ) ;
#103 = ORIENTED_EDGE ( 'NONE', *, *, #162, .T. ) ;
#104 = PLANE ( 'NONE',  #218 ) ;
#105 = PLANE ( 'NONE',  #182 ) ;
#106 = CC_DESIGN_PERSON_AND_ORGANIZATION_ASSIGNMENT ( #116, #210, ( #114 ) ) ;
#107 = CARTESIAN_POINT ( 'NONE',  ( 50.00000000000000000, 50.00000000000000000, -4.000000000000000000 ) ) ;
#108 = VECTOR ( 'NONE', #68, 1000.000000000000000 ) ;
#109 = DIRECTION ( 'NONE',  ( -0.0000000000000000000, -1.000000000000000000, -0.0000000000000000000 ) ) ;
#110 = PLANE ( 'NONE',  #56 ) ;
#111 = APPROVAL_DATE_TIME ( #208, #36 ) ;
#112 = VECTOR ( 'NONE', #211, 1000.000000000000000 ) ;
#113 = ORIENTED_EDGE ( 'NONE', *, *, #59, .T. ) ;
#114 = PRODUCT_DEFINITION ( 'UNKNOWN', '', #73, #233 ) ;
#115 = FACE_OUTER_BOUND ( 'NONE', #139, .T. ) ;
#116 = PERSON_AND_ORGANIZATION ( #171, #38 ) ;
#117 = ORIENTED_EDGE ( 'NONE', *, *, #79, .T. ) ;
#118 = ORIENTED_EDGE ( 'NONE', *, *, #162, .F. ) ;
#119 = EDGE_CURVE ( 'NONE', #77, #42, #29, .T. ) ;
#120 = DIRECTION ( 'NONE',  ( 0.0000000000000000000, 0.0000000000000000000, 1.000000000000000000 ) ) ;
#121 = ORIENTED_EDGE ( 'NONE', *, *, #227, .T. ) ;
#122 = AXIS2_PLACEMENT_3D ( 'NONE', #18, #67, #82 ) ;
#123 = DIRECTION ( 'NONE',  ( 0.0000000000000000000, -1.000000000000000000, 0.0000000000000000000 ) ) ;
#124 = PLANE ( 'NONE',  #203 ) ;
#125 = VERTEX_POINT ( 'NONE', #107 ) ;
#126 = CARTESIAN_POINT ( 'NONE',  ( 50.00000000000000000, 0.0000000000000000000, 0.0000000000000000000 ) ) ;
#127 = APPROVAL_DATE_TIME ( #228, #142 ) ;
#128 = VERTEX_POINT ( 'NONE', #28 ) ;
#129 = SHAPE_DEFINITION_REPRESENTATION ( #25, #22 ) ;
#130 = ORIENTED_EDGE ( 'NONE', *, *, #227, .F. ) ;
#131 = APPROVAL_PERSON_ORGANIZATION ( #40, #91, #229 ) ;
#132 = ORIENTED_EDGE ( 'NONE', *, *, #150, .T. ) ;
#133 = CARTESIAN_POINT ( 'NONE',  ( 0.0000000000000000000, 50.00000000000000000, -4.000000000000000000 ) ) ;
#134 = COORDINATED_UNIVERSAL_TIME_OFFSET ( 5, 0, .BEHIND. ) ;
#135 = ORIENTED_EDGE ( 'NONE', *, *, #144, .T. ) ;
#136 = CARTESIAN_POINT ( 'NONE',  ( 0.0000000000000000000, 50.00000000000000000, -4.000000000000000000 ) ) ;
#137 = MANIFOLD_SOLID_BREP ( 'Extrude1', #176 ) ;
#138 = DIRECTION ( 'NONE',  ( 0.0000000000000000000, 0.0000000000000000000, -1.000000000000000000 ) ) ;
#139 = EDGE_LOOP ( 'NONE', ( #72, #194, #117, #54 ) ) ;
#140 = CARTESIAN_POINT ( 'NONE',  ( 0.0000000000000000000, 50.00000000000000000, -4.000000000000000000 ) ) ;
#141 = PERSON_AND_ORGANIZATION ( #171, #38 ) ;
#142 = APPROVAL ( #102, 'UNSPECIFIED' ) ;
#143 = LINE ( 'NONE', #133, #235 ) ;
#144 = EDGE_CURVE ( 'NONE', #220, #77, #62, .T. ) ;
#145 = CARTESIAN_POINT ( 'NONE',  ( 50.00000000000000000, 0.0000000000000000000, -4.000000000000000000 ) ) ;
#146 = CC_DESIGN_DATE_AND_TIME_ASSIGNMENT ( #147, #172, ( #114 ) ) ;
#147 = DATE_AND_TIME ( #15, #88 ) ;
#148 = EDGE_LOOP ( 'NONE', ( #209, #199, #113, #236 ) ) ;
#149 = DIRECTION ( 'NONE',  ( 0.0000000000000000000, 0.0000000000000000000, 1.000000000000000000 ) ) ;
#150 = EDGE_CURVE ( 'NONE', #128, #90, #190, .T. ) ;
#151 = LOCAL_TIME ( 17, 1, 51.00000000000000000, #3 ) ;
#152 = LINE ( 'NONE', #145, #112 ) ;
#153 = APPLICATION_CONTEXT ( 'configuration controlled 3d designs of mechanical parts and assemblies' ) ;
#154 = PRODUCT_RELATED_PRODUCT_CATEGORY ( 'detail', '', ( #99 ) ) ;
#155 = DIRECTION ( 'NONE',  ( 0.0000000000000000000, 0.0000000000000000000, -1.000000000000000000 ) ) ;
#156 = CARTESIAN_POINT ( 'NONE',  ( 50.00000000000000000, 0.0000000000000000000, -4.000000000000000000 ) ) ;
#157 = APPLICATION_PROTOCOL_DEFINITION ( 'international standard', 'config_control_design', 1994, #30 ) ;
#158 = DATE_AND_TIME ( #205, #44 ) ;
#159 = DIRECTION ( 'NONE',  ( 1.000000000000000000, 0.0000000000000000000, 0.0000000000000000000 ) ) ;
#160 = APPROVAL_PERSON_ORGANIZATION ( #70, #142, #8 ) ;
#161 = EDGE_LOOP ( 'NONE', ( #130, #167, #103, #60 ) ) ;
#162 = EDGE_CURVE ( 'NONE', #31, #125, #152, .T. ) ;
#163 = VECTOR ( 'NONE', #27, 1000.000000000000000 ) ;
#164 = CC_DESIGN_APPROVAL ( #91, ( #166 ) ) ;
#165 = CALENDAR_DATE ( 2020, 3, 11 ) ;
#166 = SECURITY_CLASSIFICATION ( '', '', #33 ) ;
#167 = ORIENTED_EDGE ( 'NONE', *, *, #64, .F. ) ;
#168 = CALENDAR_DATE ( 2020, 3, 11 ) ;
#169 = FACE_OUTER_BOUND ( 'NONE', #148, .T. ) ;
#170 = ORIENTED_EDGE ( 'NONE', *, *, #144, .F. ) ;
#171 = PERSON ( 'UNSPECIFIED', 'UNSPECIFIED', 'UNSPECIFIED', ('UNSPECIFIED'), ('UNSPECIFIED'), ('UNSPECIFIED') ) ;
#172 = DATE_TIME_ROLE ( 'creation_date' ) ;
#173 = EDGE_CURVE ( 'NONE', #220, #90, #143, .T. ) ;
#174 = DATE_AND_TIME ( #222, #183 ) ;
#175 = CARTESIAN_POINT ( 'NONE',  ( 0.0000000000000000000, 0.0000000000000000000, -4.000000000000000000 ) ) ;
#176 = CLOSED_SHELL ( 'NONE', ( #11, #52, #9, #35, #17, #196 ) ) ;
#177 = CARTESIAN_POINT ( 'NONE',  ( 50.00000000000000000, 0.0000000000000000000, -4.000000000000000000 ) ) ;
#178 = PERSON_AND_ORGANIZATION_ROLE ( 'classification_officer' ) ;
#179 = CARTESIAN_POINT ( 'NONE',  ( 0.0000000000000000000, 0.0000000000000000000, 0.0000000000000000000 ) ) ;
#180 = COORDINATED_UNIVERSAL_TIME_OFFSET ( 5, 0, .BEHIND. ) ;
#181 = VECTOR ( 'NONE', #120, 1000.000000000000000 ) ;
#182 = AXIS2_PLACEMENT_3D ( 'NONE', #177, #159, #155 ) ;
#183 = LOCAL_TIME ( 17, 1, 51.00000000000000000, #84 ) ;
#184 = CC_DESIGN_PERSON_AND_ORGANIZATION_ASSIGNMENT ( #141, #51, ( #73 ) ) ;
#185 = EDGE_LOOP ( 'NONE', ( #202, #71, #121, #132 ) ) ;
#186 = EDGE_CURVE ( 'NONE', #90, #42, #201, .T. ) ;
#187 = FACE_OUTER_BOUND ( 'NONE', #185, .T. ) ;
#188 = APPROVAL_DATE_TIME ( #174, #91 ) ;
#189 = VECTOR ( 'NONE', #55, 1000.000000000000000 ) ;
#190 = LINE ( 'NONE', #98, #47 ) ;
#191 = EDGE_CURVE ( 'NONE', #42, #96, #89, .T. ) ;
#192 = APPROVAL_ROLE ( '' ) ;
#193 = PERSON_AND_ORGANIZATION ( #171, #38 ) ;
#194 = ORIENTED_EDGE ( 'NONE', *, *, #119, .F. ) ;
#195 = DIRECTION ( 'NONE',  ( 1.000000000000000000, 0.0000000000000000000, 0.0000000000000000000 ) ) ;
#196 = ADVANCED_FACE ( 'NONE', ( #187 ), #110, .F. ) ;
#197 = CARTESIAN_POINT ( 'NONE',  ( 0.0000000000000000000, 0.0000000000000000000, -4.000000000000000000 ) ) ;
#198 = DIRECTION ( 'NONE',  ( 0.0000000000000000000, -0.0000000000000000000, 1.000000000000000000 ) ) ;
#199 = ORIENTED_EDGE ( 'NONE', *, *, #69, .F. ) ;
#200 = DIRECTION ( 'NONE',  ( -1.000000000000000000, 0.0000000000000000000, -0.0000000000000000000 ) ) ;
#201 = LINE ( 'NONE', #216, #48 ) ;
#202 = ORIENTED_EDGE ( 'NONE', *, *, #186, .T. ) ;
#203 = AXIS2_PLACEMENT_3D ( 'NONE', #136, #34, #224 ) ;
#204 = DIRECTION ( 'NONE',  ( 0.0000000000000000000, -0.0000000000000000000, -1.000000000000000000 ) ) ;
#205 = CALENDAR_DATE ( 2020, 3, 11 ) ;
#206 = FACE_OUTER_BOUND ( 'NONE', #41, .T. ) ;
#207 = CARTESIAN_POINT ( 'NONE',  ( 0.0000000000000000000, 0.0000000000000000000, -4.000000000000000000 ) ) ;
#208 = DATE_AND_TIME ( #165, #151 ) ;
#209 = ORIENTED_EDGE ( 'NONE', *, *, #150, .F. ) ;
#210 = PERSON_AND_ORGANIZATION_ROLE ( 'creator' ) ;
#211 = DIRECTION ( 'NONE',  ( 0.0000000000000000000, 1.000000000000000000, 0.0000000000000000000 ) ) ;
#212 = CARTESIAN_POINT ( 'NONE',  ( 50.00000000000000000, 0.0000000000000000000, 0.0000000000000000000 ) ) ;
#213 = LINE ( 'NONE', #5, #181 ) ;
#214 = CARTESIAN_POINT ( 'NONE',  ( 0.0000000000000000000, 0.0000000000000000000, -4.000000000000000000 ) ) ;
#215 = CARTESIAN_POINT ( 'NONE',  ( 0.0000000000000000000, 50.00000000000000000, 0.0000000000000000000 ) ) ;
#216 = CARTESIAN_POINT ( 'NONE',  ( 0.0000000000000000000, 0.0000000000000000000, 0.0000000000000000000 ) ) ;
#217 = VECTOR ( 'NONE', #234, 1000.000000000000000 ) ;
#218 = AXIS2_PLACEMENT_3D ( 'NONE', #207, #6, #65 ) ;
#219 = LOCAL_TIME ( 17, 1, 51.00000000000000000, #180 ) ;
#220 = VERTEX_POINT ( 'NONE', #140 ) ;
#221 = FACE_OUTER_BOUND ( 'NONE', #24, .T. ) ;
#222 = CALENDAR_DATE ( 2020, 3, 11 ) ;
#223 = ORIENTED_EDGE ( 'NONE', *, *, #173, .F. ) ;
#224 = DIRECTION ( 'NONE',  ( -1.000000000000000000, 0.0000000000000000000, -0.0000000000000000000 ) ) ;
#225 = LINE ( 'NONE', #10, #108 ) ;
#226 = DATE_TIME_ROLE ( 'classification_date' ) ;
#227 = EDGE_CURVE ( 'NONE', #96, #128, #101, .T. ) ;
#228 = DATE_AND_TIME ( #168, #219 ) ;
#229 = APPROVAL_ROLE ( '' ) ;
#230 = CARTESIAN_POINT ( 'NONE',  ( 50.00000000000000000, 50.00000000000000000, -4.000000000000000000 ) ) ;
#231 = MECHANICAL_CONTEXT ( 'NONE', #153, 'mechanical' ) ;
#232 = DIRECTION ( 'NONE',  ( 0.0000000000000000000, 0.0000000000000000000, 1.000000000000000000 ) ) ;
#233 = DESIGN_CONTEXT ( 'detailed design', #30, 'design' ) ;
#234 = DIRECTION ( 'NONE',  ( 1.000000000000000000, 0.0000000000000000000, 0.0000000000000000000 ) ) ;
#235 = VECTOR ( 'NONE', #149, 1000.000000000000000 ) ;
#236 = ORIENTED_EDGE ( 'NONE', *, *, #173, .T. ) ;
#237 = PERSON_AND_ORGANIZATION ( #171, #38 ) ;
ENDSEC;
END-ISO-10303-21;
