ISO-10303-21;
HEADER;
FILE_DESCRIPTION (( 'STEP AP203' ),
    '1' );
FILE_NAME ('Web Model 43368_20874.step',
    '2022-03-16T14:22:50',
    ( '' ),
    ( '' ),
    'SwSTEP 2.0',
    'SolidWorks 2021',
    '' );
FILE_SCHEMA (( 'CONFIG_CONTROL_DESIGN' ));
ENDSEC;

DATA;
#1 = FACE_OUTER_BOUND ( 'NONE', #105, .T. ) ;
#2 = DIRECTION ( 'NONE',  ( 0.000000000000000000, 0.000000000000000000, 1.000000000000000000 ) ) ;
#3 = PERSON_AND_ORGANIZATION_ROLE ( 'design_owner' ) ;
#4 = DATE_AND_TIME ( #139, #158 ) ;
#5 = APPROVAL ( #143, 'UNSPECIFIED' ) ;
#6 = PERSON_AND_ORGANIZATION_ROLE ( 'classification_officer' ) ;
#7 = PERSON_AND_ORGANIZATION_ROLE ( 'design_supplier' ) ;
#8 = SHAPE_DEFINITION_REPRESENTATION ( #48, #154 ) ;
#9 = APPROVAL_ROLE ( '' ) ;
#10 = ORIENTED_EDGE ( 'NONE', *, *, #174, .T. ) ;
#11 = LOCAL_TIME ( 10, 22, 50.00000000000000000, #82 ) ;
#12 = DIRECTION ( 'NONE',  ( 1.000000000000000000, 0.000000000000000000, 0.000000000000000000 ) ) ;
#13 = FACE_OUTER_BOUND ( 'NONE', #41, .T. ) ;
#14 = APPROVAL_STATUS ( 'not_yet_approved' ) ;
#15 = PERSON_AND_ORGANIZATION ( #89, #124 ) ;
#16 = CYLINDRICAL_SURFACE ( 'NONE', #112, 10.00000000000000000 ) ;
#17 = MANIFOLD_SOLID_BREP ( 'Boss-Extrude1', #91 ) ;
#18 = DESIGN_CONTEXT ( 'detailed design', #113, 'design' ) ;
#19 = PLANE ( 'NONE',  #49 ) ;
#20 = CYLINDRICAL_SURFACE ( 'NONE', #83, 10.00000000000000000 ) ;
#21 = PRODUCT ( 'Web Model 43368_20874', 'Web Model 43368_20874', '', ( #77 ) ) ;
#22 = DATE_AND_TIME ( #65, #56 ) ;
#23 = APPROVAL_STATUS ( 'not_yet_approved' ) ;
#24 = DATE_AND_TIME ( #85, #11 ) ;
#25 = AXIS2_PLACEMENT_3D ( 'NONE', #134, #59, #152 ) ;
#26 = APPROVAL_PERSON_ORGANIZATION ( #106, #87, #97 ) ;
#27 = CARTESIAN_POINT ( 'NONE',  ( 10.00000000000000000, 1.224646799147353256E-15, 1.000000000000000000 ) ) ;
#28 = CARTESIAN_POINT ( 'NONE',  ( 10.00000000000000000, 1.224646799147353256E-15, 0.000000000000000000 ) ) ;
#29 = CIRCLE ( 'NONE', #99, 10.00000000000000000 ) ;
#30 = LINE ( 'NONE', #27, #42 ) ;
#31 = CARTESIAN_POINT ( 'NONE',  ( 0.000000000000000000, 0.000000000000000000, 0.000000000000000000 ) ) ;
#32 = CARTESIAN_POINT ( 'NONE',  ( 0.000000000000000000, 0.000000000000000000, 1.000000000000000000 ) ) ;
#33 = AXIS2_PLACEMENT_3D ( 'NONE', #98, #94, #116 ) ;
#34 = CARTESIAN_POINT ( 'NONE',  ( 0.000000000000000000, 0.000000000000000000, 0.000000000000000000 ) ) ;
#35 = DIRECTION ( 'NONE',  ( 0.000000000000000000, 0.000000000000000000, 1.000000000000000000 ) ) ;
#36 = APPLICATION_CONTEXT ( 'configuration controlled 3d designs of mechanical parts and assemblies' ) ;
#37 = DIRECTION ( 'NONE',  ( -0.000000000000000000, -0.000000000000000000, -1.000000000000000000 ) ) ;
#38 = EDGE_CURVE ( 'NONE', #73, #40, #30, .T. ) ;
#39 = CC_DESIGN_PERSON_AND_ORGANIZATION_ASSIGNMENT ( #160, #7, ( #50 ) ) ;
#40 = VERTEX_POINT ( 'NONE', #28 ) ;
#41 = EDGE_LOOP ( 'NONE', ( #57, #149 ) ) ;
#42 = VECTOR ( 'NONE', #121, 1000.000000000000000 ) ;
#43 = ORIENTED_EDGE ( 'NONE', *, *, #132, .F. ) ;
#44 = EDGE_CURVE ( 'NONE', #164, #40, #110, .T. ) ;
#45 = DIRECTION ( 'NONE',  ( -1.000000000000000000, 0.000000000000000000, 0.000000000000000000 ) ) ;
#46 = UNCERTAINTY_MEASURE_WITH_UNIT (LENGTH_MEASURE( 1.000000000000000082E-05 ), #126, 'distance_accuracy_value', 'NONE');
#47 =( NAMED_UNIT ( * ) SI_UNIT ( $, .STERADIAN. ) SOLID_ANGLE_UNIT ( ) );
#48 = PRODUCT_DEFINITION_SHAPE ( 'NONE', 'NONE',  #141 ) ;
#49 = AXIS2_PLACEMENT_3D ( 'NONE', #34, #35, #168 ) ;
#50 = PRODUCT_DEFINITION_FORMATION_WITH_SPECIFIED_SOURCE ( 'ANY', '', #21, .NOT_KNOWN. ) ;
#51 = AXIS2_PLACEMENT_3D ( 'NONE', #60, #109, #78 ) ;
#52 = CC_DESIGN_PERSON_AND_ORGANIZATION_ASSIGNMENT ( #15, #3, ( #21 ) ) ;
#53 = COORDINATED_UNIVERSAL_TIME_OFFSET ( 5, 0, .BEHIND. ) ;
#54 = APPROVAL_DATE_TIME ( #172, #138 ) ;
#55 =( GEOMETRIC_REPRESENTATION_CONTEXT ( 3 ) GLOBAL_UNCERTAINTY_ASSIGNED_CONTEXT ( ( #46 ) ) GLOBAL_UNIT_ASSIGNED_CONTEXT ( ( #126, #166, #47 ) ) REPRESENTATION_CONTEXT ( 'NONE', 'WORKASPACE' ) );
#56 = LOCAL_TIME ( 10, 22, 50.00000000000000000, #53 ) ;
#57 = ORIENTED_EDGE ( 'NONE', *, *, #44, .F. ) ;
#58 = ORIENTED_EDGE ( 'NONE', *, *, #44, .T. ) ;
#59 = DIRECTION ( 'NONE',  ( 0.000000000000000000, 0.000000000000000000, 1.000000000000000000 ) ) ;
#60 = CARTESIAN_POINT ( 'NONE',  ( 0.000000000000000000, 0.000000000000000000, 0.000000000000000000 ) ) ;
#61 = DIRECTION ( 'NONE',  ( 1.000000000000000000, 0.000000000000000000, 0.000000000000000000 ) ) ;
#62 = CC_DESIGN_PERSON_AND_ORGANIZATION_ASSIGNMENT ( #117, #100, ( #141 ) ) ;
#63 = COORDINATED_UNIVERSAL_TIME_OFFSET ( 5, 0, .BEHIND. ) ;
#64 = APPROVAL_DATE_TIME ( #4, #87 ) ;
#65 = CALENDAR_DATE ( 2022, 16, 3 ) ;
#66 = CC_DESIGN_APPROVAL ( #87, ( #141 ) ) ;
#67 = DATE_TIME_ROLE ( 'creation_date' ) ;
#68 = ADVANCED_FACE ( 'NONE', ( #1 ), #93, .T. ) ;
#69 = CALENDAR_DATE ( 2022, 16, 3 ) ;
#70 = APPROVAL_ROLE ( '' ) ;
#71 = ORIENTED_EDGE ( 'NONE', *, *, #151, .T. ) ;
#72 = CC_DESIGN_DATE_AND_TIME_ASSIGNMENT ( #24, #67, ( #141 ) ) ;
#73 = VERTEX_POINT ( 'NONE', #135 ) ;
#74 = CIRCLE ( 'NONE', #137, 10.00000000000000000 ) ;
#75 = DIRECTION ( 'NONE',  ( -1.000000000000000000, 0.000000000000000000, 0.000000000000000000 ) ) ;
#76 = CARTESIAN_POINT ( 'NONE',  ( -10.00000000000000000, 0.000000000000000000, 1.000000000000000000 ) ) ;
#77 = MECHANICAL_CONTEXT ( 'NONE', #36, 'mechanical' ) ;
#78 = DIRECTION ( 'NONE',  ( 1.000000000000000000, 0.000000000000000000, 0.000000000000000000 ) ) ;
#79 = ADVANCED_FACE ( 'NONE', ( #13 ), #19, .F. ) ;
#80 = CARTESIAN_POINT ( 'NONE',  ( -10.00000000000000000, 0.000000000000000000, 0.000000000000000000 ) ) ;
#81 = CC_DESIGN_PERSON_AND_ORGANIZATION_ASSIGNMENT ( #173, #6, ( #86 ) ) ;
#82 = COORDINATED_UNIVERSAL_TIME_OFFSET ( 5, 0, .BEHIND. ) ;
#83 = AXIS2_PLACEMENT_3D ( 'NONE', #157, #115, #75 ) ;
#84 = PERSON_AND_ORGANIZATION ( #89, #124 ) ;
#85 = CALENDAR_DATE ( 2022, 16, 3 ) ;
#86 = SECURITY_CLASSIFICATION ( '', '', #145 ) ;
#87 = APPROVAL ( #14, 'UNSPECIFIED' ) ;
#88 = ORIENTED_EDGE ( 'NONE', *, *, #38, .T. ) ;
#89 = PERSON ( 'UNSPECIFIED', 'UNSPECIFIED', 'UNSPECIFIED', ('UNSPECIFIED'), ('UNSPECIFIED'), ('UNSPECIFIED') ) ;
#90 = EDGE_LOOP ( 'NONE', ( #103, #147, #10, #58 ) ) ;
#91 = CLOSED_SHELL ( 'NONE', ( #92, #101, #68, #79 ) ) ;
#92 = ADVANCED_FACE ( 'NONE', ( #129 ), #20, .T. ) ;
#93 = PLANE ( 'NONE',  #25 ) ;
#94 = DIRECTION ( 'NONE',  ( 0.000000000000000000, 0.000000000000000000, 1.000000000000000000 ) ) ;
#95 = CIRCLE ( 'NONE', #33, 10.00000000000000000 ) ;
#96 = APPROVAL_PERSON_ORGANIZATION ( #131, #5, #70 ) ;
#97 = APPROVAL_ROLE ( '' ) ;
#98 = CARTESIAN_POINT ( 'NONE',  ( 0.000000000000000000, 0.000000000000000000, 0.000000000000000000 ) ) ;
#99 = AXIS2_PLACEMENT_3D ( 'NONE', #32, #167, #169 ) ;
#100 = PERSON_AND_ORGANIZATION_ROLE ( 'creator' ) ;
#101 = ADVANCED_FACE ( 'NONE', ( #130 ), #16, .T. ) ;
#102 = ORIENTED_EDGE ( 'NONE', *, *, #132, .T. ) ;
#103 = ORIENTED_EDGE ( 'NONE', *, *, #38, .F. ) ;
#104 = CC_DESIGN_DATE_AND_TIME_ASSIGNMENT ( #170, #142, ( #86 ) ) ;
#105 = EDGE_LOOP ( 'NONE', ( #71, #102 ) ) ;
#106 = PERSON_AND_ORGANIZATION ( #89, #124 ) ;
#107 = LINE ( 'NONE', #136, #128 ) ;
#108 = APPROVAL_PERSON_ORGANIZATION ( #119, #138, #9 ) ;
#109 = DIRECTION ( 'NONE',  ( 0.000000000000000000, 0.000000000000000000, 1.000000000000000000 ) ) ;
#110 = CIRCLE ( 'NONE', #155, 10.00000000000000000 ) ;
#111 = COORDINATED_UNIVERSAL_TIME_OFFSET ( 5, 0, .BEHIND. ) ;
#112 = AXIS2_PLACEMENT_3D ( 'NONE', #127, #37, #45 ) ;
#113 = APPLICATION_CONTEXT ( 'configuration controlled 3d designs of mechanical parts and assemblies' ) ;
#114 = DIRECTION ( 'NONE',  ( 0.000000000000000000, 0.000000000000000000, 1.000000000000000000 ) ) ;
#115 = DIRECTION ( 'NONE',  ( -0.000000000000000000, -0.000000000000000000, -1.000000000000000000 ) ) ;
#116 = DIRECTION ( 'NONE',  ( 1.000000000000000000, 0.000000000000000000, 0.000000000000000000 ) ) ;
#117 = PERSON_AND_ORGANIZATION ( #89, #124 ) ;
#118 = COORDINATED_UNIVERSAL_TIME_OFFSET ( 5, 0, .BEHIND. ) ;
#119 = PERSON_AND_ORGANIZATION ( #89, #124 ) ;
#120 = CC_DESIGN_APPROVAL ( #138, ( #86 ) ) ;
#121 = DIRECTION ( 'NONE',  ( -0.000000000000000000, -0.000000000000000000, -1.000000000000000000 ) ) ;
#122 = ORIENTED_EDGE ( 'NONE', *, *, #174, .F. ) ;
#123 = VERTEX_POINT ( 'NONE', #76 ) ;
#124 = ORGANIZATION ( 'UNSPECIFIED', 'UNSPECIFIED', '' ) ;
#125 = CARTESIAN_POINT ( 'NONE',  ( 0.000000000000000000, 0.000000000000000000, 1.000000000000000000 ) ) ;
#126 =( LENGTH_UNIT ( ) NAMED_UNIT ( * ) SI_UNIT ( .MILLI., .METRE. ) );
#127 = CARTESIAN_POINT ( 'NONE',  ( 0.000000000000000000, 0.000000000000000000, 1.000000000000000000 ) ) ;
#128 = VECTOR ( 'NONE', #153, 1000.000000000000000 ) ;
#129 = FACE_OUTER_BOUND ( 'NONE', #148, .T. ) ;
#130 = FACE_OUTER_BOUND ( 'NONE', #90, .T. ) ;
#131 = PERSON_AND_ORGANIZATION ( #89, #124 ) ;
#132 = EDGE_CURVE ( 'NONE', #73, #123, #74, .T. ) ;
#133 = PERSON_AND_ORGANIZATION_ROLE ( 'creator' ) ;
#134 = CARTESIAN_POINT ( 'NONE',  ( 0.000000000000000000, 0.000000000000000000, 1.000000000000000000 ) ) ;
#135 = CARTESIAN_POINT ( 'NONE',  ( 10.00000000000000000, 1.224646799147353256E-15, 1.000000000000000000 ) ) ;
#136 = CARTESIAN_POINT ( 'NONE',  ( -10.00000000000000000, 0.000000000000000000, 1.000000000000000000 ) ) ;
#137 = AXIS2_PLACEMENT_3D ( 'NONE', #125, #2, #61 ) ;
#138 = APPROVAL ( #23, 'UNSPECIFIED' ) ;
#139 = CALENDAR_DATE ( 2022, 16, 3 ) ;
#140 = APPLICATION_PROTOCOL_DEFINITION ( 'international standard', 'config_control_design', 1994, #113 ) ;
#141 = PRODUCT_DEFINITION ( 'UNKNOWN', '', #50, #18 ) ;
#142 = DATE_TIME_ROLE ( 'classification_date' ) ;
#143 = APPROVAL_STATUS ( 'not_yet_approved' ) ;
#144 = CC_DESIGN_PERSON_AND_ORGANIZATION_ASSIGNMENT ( #84, #133, ( #50 ) ) ;
#145 = SECURITY_CLASSIFICATION_LEVEL ( 'unclassified' ) ;
#146 = LOCAL_TIME ( 10, 22, 50.00000000000000000, #118 ) ;
#147 = ORIENTED_EDGE ( 'NONE', *, *, #151, .F. ) ;
#148 = EDGE_LOOP ( 'NONE', ( #43, #88, #175, #122 ) ) ;
#149 = ORIENTED_EDGE ( 'NONE', *, *, #162, .F. ) ;
#150 = LOCAL_TIME ( 10, 22, 50.00000000000000000, #111 ) ;
#151 = EDGE_CURVE ( 'NONE', #123, #73, #29, .T. ) ;
#152 = DIRECTION ( 'NONE',  ( 1.000000000000000000, 0.000000000000000000, -0.000000000000000000 ) ) ;
#153 = DIRECTION ( 'NONE',  ( -0.000000000000000000, -0.000000000000000000, -1.000000000000000000 ) ) ;
#154 = ADVANCED_BREP_SHAPE_REPRESENTATION ( 'Web Model 43368_20874', ( #17, #51 ), #55 ) ;
#155 = AXIS2_PLACEMENT_3D ( 'NONE', #31, #114, #12 ) ;
#156 = APPLICATION_PROTOCOL_DEFINITION ( 'international standard', 'config_control_design', 1994, #36 ) ;
#157 = CARTESIAN_POINT ( 'NONE',  ( 0.000000000000000000, 0.000000000000000000, 1.000000000000000000 ) ) ;
#158 = LOCAL_TIME ( 10, 22, 50.00000000000000000, #63 ) ;
#159 = APPROVAL_DATE_TIME ( #22, #5 ) ;
#160 = PERSON_AND_ORGANIZATION ( #89, #124 ) ;
#161 = PRODUCT_RELATED_PRODUCT_CATEGORY ( 'detail', '', ( #21 ) ) ;
#162 = EDGE_CURVE ( 'NONE', #40, #164, #95, .T. ) ;
#163 = CC_DESIGN_SECURITY_CLASSIFICATION ( #86, ( #50 ) ) ;
#164 = VERTEX_POINT ( 'NONE', #80 ) ;
#165 = CC_DESIGN_APPROVAL ( #5, ( #50 ) ) ;
#166 =( NAMED_UNIT ( * ) PLANE_ANGLE_UNIT ( ) SI_UNIT ( $, .RADIAN. ) );
#167 = DIRECTION ( 'NONE',  ( 0.000000000000000000, 0.000000000000000000, 1.000000000000000000 ) ) ;
#168 = DIRECTION ( 'NONE',  ( 1.000000000000000000, 0.000000000000000000, -0.000000000000000000 ) ) ;
#169 = DIRECTION ( 'NONE',  ( 1.000000000000000000, 0.000000000000000000, 0.000000000000000000 ) ) ;
#170 = DATE_AND_TIME ( #69, #146 ) ;
#171 = CALENDAR_DATE ( 2022, 16, 3 ) ;
#172 = DATE_AND_TIME ( #171, #150 ) ;
#173 = PERSON_AND_ORGANIZATION ( #89, #124 ) ;
#174 = EDGE_CURVE ( 'NONE', #123, #164, #107, .T. ) ;
#175 = ORIENTED_EDGE ( 'NONE', *, *, #162, .T. ) ;
ENDSEC;
END-ISO-10303-21;
