ISO-10303-21;
HEADER;
FILE_DESCRIPTION (( 'STEP AP203' ),
    '1' );
FILE_NAME ('20116-E0W.STEP',
    '2015-07-10T15:26:36',
    ( 'Admin' ),
    ( '' ),
    'SwSTEP 2.0',
    'SolidWorks 2014',
    '' );
FILE_SCHEMA (( 'CONFIG_CONTROL_DESIGN' ));
ENDSEC;

DATA;
#1 = VERTEX_POINT ( 'NONE', #113 ) ;
#2 = DIRECTION ( 'NONE',  ( -0.0000000000000000000, 2.519346158043815900E-016, -1.000000000000000000 ) ) ;
#3 = CARTESIAN_POINT ( 'NONE',  ( 0.0000000000000000000, -12.55857864376269200, -1.660000000000006600 ) ) ;
#4 = CYLINDRICAL_SURFACE ( 'NONE', #190, 12.69999999999999900 ) ;
#5 = DIRECTION ( 'NONE',  ( -1.000000000000000000, 0.0000000000000000000, 0.0000000000000000000 ) ) ;
#6 = AXIS2_PLACEMENT_3D ( 'NONE', #98, #111, #35 ) ;
#7 = DIRECTION ( 'NONE',  ( -0.0000000000000000000, 2.519346158043815900E-016, -1.000000000000000000 ) ) ;
#8 = ORIENTED_EDGE ( 'NONE', *, *, #299, .T. ) ;
#9 = CARTESIAN_POINT ( 'NONE',  ( 1.555301434917138200E-015, -12.69999999999999800, 0.2248790164948143400 ) ) ;
#10 = APPROVAL_ROLE ( '' ) ;
#11 = LINE ( 'NONE', #229, #265 ) ;
#12 = ADVANCED_FACE ( 'NONE', ( #70 ), #99, .T. ) ;
#13 = CIRCLE ( 'NONE', #95, 12.55857864376269200 ) ;
#14 = EDGE_LOOP ( 'NONE', ( #279, #248, #251, #119 ) ) ;
#15 = CC_DESIGN_PERSON_AND_ORGANIZATION_ASSIGNMENT ( #61, #252, ( #294 ) ) ;
#16 = DIRECTION ( 'NONE',  ( 0.0000000000000000000, 1.000000000000000000, 2.503616364077591100E-016 ) ) ;
#17 = EDGE_LOOP ( 'NONE', ( #107, #239, #19, #32 ) ) ;
#18 = DIRECTION ( 'NONE',  ( -0.0000000000000000000, 2.519346158043815900E-016, -1.000000000000000000 ) ) ;
#19 = ORIENTED_EDGE ( 'NONE', *, *, #198, .T. ) ;
#20 = EDGE_CURVE ( 'NONE', #244, #281, #234, .T. ) ;
#21 = DIRECTION ( 'NONE',  ( -0.0000000000000000000, 2.519346158043815900E-016, -1.000000000000000000 ) ) ;
#22 = VECTOR ( 'NONE', #85, 1000.000000000000000 ) ;
#23 = CARTESIAN_POINT ( 'NONE',  ( 0.0000000000000000000, 4.725994865959687800E-016, -1.518578643762692200 ) ) ;
#24 = ORIENTED_EDGE ( 'NONE', *, *, #51, .F. ) ;
#25 = AXIS2_PLACEMENT_3D ( 'NONE', #116, #203, #152 ) ;
#26 = DIRECTION ( 'NONE',  ( 0.0000000000000000000, 0.0000000000000000000, 1.000000000000000000 ) ) ;
#27 = DIRECTION ( 'NONE',  ( 1.000000000000000000, 1.224646799147353200E-016, 3.085309208392540800E-032 ) ) ;
#28 = PRODUCT ( '20116-E0W', '20116-E0W', '', ( #112 ) ) ;
#29 = EDGE_LOOP ( 'NONE', ( #100, #62, #208 ) ) ;
#30 = ORIENTED_EDGE ( 'NONE', *, *, #260, .T. ) ;
#31 = DIRECTION ( 'NONE',  ( 0.0000000000000000000, 1.000000000000000000, 2.589947962838886900E-016 ) ) ;
#32 = ORIENTED_EDGE ( 'NONE', *, *, #299, .F. ) ;
#33 = VERTEX_POINT ( 'NONE', #201 ) ;
#34 = ORIENTED_EDGE ( 'NONE', *, *, #273, .F. ) ;
#35 = DIRECTION ( 'NONE',  ( 0.0000000000000000000, 1.000000000000000000, 2.561107494060246600E-016 ) ) ;
#36 = DIRECTION ( 'NONE',  ( -0.0000000000000000000, 2.519346158043815900E-016, -1.000000000000000000 ) ) ;
#37 = PERSON_AND_ORGANIZATION_ROLE ( 'creator' ) ;
#38 = DIRECTION ( 'NONE',  ( 0.0000000000000000000, 1.000000000000000000, 2.503616364077591100E-016 ) ) ;
#39 = CARTESIAN_POINT ( 'NONE',  ( 0.0000000000000000000, -3.670450154064422300E-015, -59.94300000000000500 ) ) ;
#40 = EDGE_CURVE ( 'NONE', #244, #84, #241, .T. ) ;
#41 = CIRCLE ( 'NONE', #293, 12.55857864376268800 ) ;
#42 = FACE_OUTER_BOUND ( 'NONE', #29, .T. ) ;
#43 = CC_DESIGN_PERSON_AND_ORGANIZATION_ASSIGNMENT ( #266, #197, ( #221 ) ) ;
#44 = ORIENTED_EDGE ( 'NONE', *, *, #260, .F. ) ;
#45 = DIRECTION ( 'NONE',  ( 0.0000000000000000000, 1.000000000000000000, 2.252777917928421500E-016 ) ) ;
#46 = ORIENTED_EDGE ( 'NONE', *, *, #278, .F. ) ;
#47 = AXIS2_PLACEMENT_3D ( 'NONE', #106, #194, #300 ) ;
#48 = CARTESIAN_POINT ( 'NONE',  ( 1.555301434917138400E-015, -12.69999999999999900, -1.660000000000003300 ) ) ;
#49 = CC_DESIGN_PERSON_AND_ORGANIZATION_ASSIGNMENT ( #180, #147, ( #28 ) ) ;
#50 = EDGE_LOOP ( 'NONE', ( #223, #53 ) ) ;
#51 = EDGE_CURVE ( 'NONE', #63, #281, #143, .T. ) ;
#52 = PERSON ( 'UNSPECIFIED', 'UNSPECIFIED', 'UNSPECIFIED', ('UNSPECIFIED'), ('UNSPECIFIED'), ('UNSPECIFIED') ) ;
#53 = ORIENTED_EDGE ( 'NONE', *, *, #108, .T. ) ;
#54 = APPLICATION_PROTOCOL_DEFINITION ( 'international standard', 'config_control_design', 1994, #97 ) ;
#55 = PERSON_AND_ORGANIZATION ( #52, #128 ) ;
#56 = AXIS2_PLACEMENT_3D ( 'NONE', #232, #164, #188 ) ;
#57 = SPHERICAL_SURFACE ( 'NONE', #25, 61.60300000000000200 ) ;
#58 = DIRECTION ( 'NONE',  ( 0.0000000000000000000, 1.000000000000000000, 2.518422369159242900E-016 ) ) ;
#59 = ORIENTED_EDGE ( 'NONE', *, *, #51, .T. ) ;
#60 = AXIS2_PLACEMENT_3D ( 'NONE', #290, #36, #31 ) ;
#61 = PERSON_AND_ORGANIZATION ( #52, #128 ) ;
#62 = ORIENTED_EDGE ( 'NONE', *, *, #273, .T. ) ;
#63 = VERTEX_POINT ( 'NONE', #9 ) ;
#64 = AXIS2_PLACEMENT_3D ( 'NONE', #82, #170, #45 ) ;
#65 = ORIENTED_EDGE ( 'NONE', *, *, #154, .T. ) ;
#66 = AXIS2_PLACEMENT_3D ( 'NONE', #87, #2, #236 ) ;
#67 = APPROVAL_ROLE ( '' ) ;
#68 = VECTOR ( 'NONE', #73, 1000.000000000000000 ) ;
#69 = CARTESIAN_POINT ( 'NONE',  ( 0.0000000000000000000, -12.55857864376269200, -1.660000000000006600 ) ) ;
#70 = FACE_OUTER_BOUND ( 'NONE', #258, .T. ) ;
#71 = DIRECTION ( 'NONE',  ( 0.0000000000000000000, 1.000000000000000000, 2.561107494060246600E-016 ) ) ;
#72 = DESIGN_CONTEXT ( 'detailed design', #97, 'design' ) ;
#73 = DIRECTION ( 'NONE',  ( -0.0000000000000000000, 2.519346158043815900E-016, -1.000000000000000000 ) ) ;
#74 = EDGE_CURVE ( 'NONE', #1, #63, #175, .T. ) ;
#75 = CARTESIAN_POINT ( 'NONE',  ( 0.0000000000000000000, 4.725994865959687800E-016, -1.518578643762692200 ) ) ;
#76 = CIRCLE ( 'NONE', #255, 61.60300000000000200 ) ;
#77 = LOCAL_TIME ( 11, 26, 36.00000000000000000, #171 ) ;
#78 = AXIS2_PLACEMENT_3D ( 'NONE', #134, #233, #58 ) ;
#79 = DATE_AND_TIME ( #157, #276 ) ;
#80 = FACE_OUTER_BOUND ( 'NONE', #17, .T. ) ;
#81 = DIRECTION ( 'NONE',  ( 0.0000000000000000000, 0.0000000000000000000, 1.000000000000000000 ) ) ;
#82 = CARTESIAN_POINT ( 'NONE',  ( 0.0000000000000000000, -3.670450154064422300E-015, -59.94300000000000500 ) ) ;
#83 = ADVANCED_FACE ( 'NONE', ( #169 ), #4, .T. ) ;
#84 = VERTEX_POINT ( 'NONE', #228 ) ;
#85 = DIRECTION ( 'NONE',  ( 8.659560562354946400E-017, -0.7071067811865483500, -0.7071067811865466800 ) ) ;
#86 = ADVANCED_FACE ( 'NONE', ( #204 ), #135, .T. ) ;
#87 = CARTESIAN_POINT ( 'NONE',  ( 0.0000000000000000000, 3.336215078778706500E-017, 0.2248790164948175400 ) ) ;
#88 = DATE_AND_TIME ( #205, #216 ) ;
#89 = CARTESIAN_POINT ( 'NONE',  ( 1.537982313792428900E-015, 12.55857864376269200, -1.659999999999999900 ) ) ;
#90 = DIRECTION ( 'NONE',  ( 0.0000000000000000000, 1.000000000000000000, 2.589947962838886900E-016 ) ) ;
#91 = CARTESIAN_POINT ( 'NONE',  ( 0.0000000000000000000, -3.670450154064422300E-015, -59.94300000000000500 ) ) ;
#92 = APPLICATION_CONTEXT ( 'configuration controlled 3d designs of mechanical parts and assemblies' ) ;
#93 = CARTESIAN_POINT ( 'NONE',  ( 0.0000000000000000000, 5.082284216461503300E-016, -1.660000000000003300 ) ) ;
#94 = APPROVAL_STATUS ( 'not_yet_approved' ) ;
#95 = AXIS2_PLACEMENT_3D ( 'NONE', #93, #283, #90 ) ;
#96 =( GEOMETRIC_REPRESENTATION_CONTEXT ( 3 ) GLOBAL_UNCERTAINTY_ASSIGNED_CONTEXT ( ( #219 ) ) GLOBAL_UNIT_ASSIGNED_CONTEXT ( ( #257, #285, #189 ) ) REPRESENTATION_CONTEXT ( 'NONE', 'WORKASPACE' ) );
#97 = APPLICATION_CONTEXT ( 'configuration controlled 3d designs of mechanical parts and assemblies' ) ;
#98 = CARTESIAN_POINT ( 'NONE',  ( 0.0000000000000000000, 5.082284216461495400E-016, -1.659999999999999900 ) ) ;
#99 = CONICAL_SURFACE ( 'NONE', #47, 12.55857864376269200, 0.7853981633974375100 ) ;
#100 = ORIENTED_EDGE ( 'NONE', *, *, #182, .F. ) ;
#101 = CARTESIAN_POINT ( 'NONE',  ( 0.0000000000000000000, -1.541828245306802300E-014, 1.660000000000001700 ) ) ;
#102 = CIRCLE ( 'NONE', #275, 61.60300000000000200 ) ;
#103 = DIRECTION ( 'NONE',  ( 0.0000000000000000000, -2.519346158043815900E-016, 1.000000000000000000 ) ) ;
#104 = LOCAL_TIME ( 11, 26, 36.00000000000000000, #230 ) ;
#105 = ORIENTED_EDGE ( 'NONE', *, *, #154, .F. ) ;
#106 = CARTESIAN_POINT ( 'NONE',  ( 0.0000000000000000000, 5.082284216461503300E-016, -1.660000000000003300 ) ) ;
#107 = ORIENTED_EDGE ( 'NONE', *, *, #74, .F. ) ;
#108 = EDGE_CURVE ( 'NONE', #84, #244, #13, .T. ) ;
#109 = DIRECTION ( 'NONE',  ( -0.0000000000000000000, 2.519346158043815900E-016, -1.000000000000000000 ) ) ;
#110 = APPROVAL_STATUS ( 'not_yet_approved' ) ;
#111 = DIRECTION ( 'NONE',  ( -0.0000000000000000000, 2.519346158043815900E-016, -1.000000000000000000 ) ) ;
#112 = MECHANICAL_CONTEXT ( 'NONE', #92, 'mechanical' ) ;
#113 = CARTESIAN_POINT ( 'NONE',  ( 1.537982313792426700E-015, -12.55857864376269400, 0.3663003727321267300 ) ) ;
#114 = DIRECTION ( 'NONE',  ( -1.224646799147353500E-016, 1.000000000000000000, 0.0000000000000000000 ) ) ;
#115 = PRODUCT_DEFINITION_SHAPE ( 'NONE', 'NONE',  #294 ) ;
#116 = CARTESIAN_POINT ( 'NONE',  ( 0.0000000000000000000, -3.670450154064422300E-015, -59.94300000000000500 ) ) ;
#117 = AXIS2_PLACEMENT_3D ( 'NONE', #267, #26, #160 ) ;
#118 = LINE ( 'NONE', #129, #68 ) ;
#119 = ORIENTED_EDGE ( 'NONE', *, *, #198, .F. ) ;
#120 = ORIENTED_EDGE ( 'NONE', *, *, #20, .F. ) ;
#121 = CARTESIAN_POINT ( 'NONE',  ( 0.0000000000000000000, 5.082284216461495400E-016, -1.659999999999999900 ) ) ;
#122 = ADVANCED_FACE ( 'NONE', ( #80 ), #148, .T. ) ;
#123 = CIRCLE ( 'NONE', #269, 12.69999999999999900 ) ;
#124 = CC_DESIGN_DATE_AND_TIME_ASSIGNMENT ( #167, #153, ( #294 ) ) ;
#125 = CARTESIAN_POINT ( 'NONE',  ( 0.0000000000000000000, -2.266784262394086200E-018, 0.3663003727321267900 ) ) ;
#126 = PERSON_AND_ORGANIZATION ( #52, #128 ) ;
#127 = ADVANCED_FACE ( 'NONE', ( #297 ), #162, .T. ) ;
#128 = ORGANIZATION ( 'UNSPECIFIED', 'UNSPECIFIED', '' ) ;
#129 = CARTESIAN_POINT ( 'NONE',  ( 0.0000000000000000000, 12.69999999999999900, -1.659999999999996800 ) ) ;
#130 = EDGE_LOOP ( 'NONE', ( #287, #59, #132, #46 ) ) ;
#131 = APPROVAL_ROLE ( '' ) ;
#132 = ORIENTED_EDGE ( 'NONE', *, *, #199, .F. ) ;
#133 = PERSON_AND_ORGANIZATION ( #52, #128 ) ;
#134 = CARTESIAN_POINT ( 'NONE',  ( 0.0000000000000000000, 3.336215078778706500E-017, 0.2248790164948175400 ) ) ;
#135 = PLANE ( 'NONE',  #56 ) ;
#136 = APPROVAL_PERSON_ORGANIZATION ( #55, #242, #10 ) ;
#137 = ORIENTED_EDGE ( 'NONE', *, *, #246, .F. ) ;
#138 = DATE_AND_TIME ( #259, #243 ) ;
#139 = CARTESIAN_POINT ( 'NONE',  ( 1.555301434917138400E-015, -12.69999999999999900, -1.518578643762695600 ) ) ;
#140 = EDGE_LOOP ( 'NONE', ( #235, #65, #187, #120 ) ) ;
#141 = DATE_AND_TIME ( #237, #104 ) ;
#142 = DIRECTION ( 'NONE',  ( 0.0000000000000000000, -1.000000000000000000, -2.589947962838886900E-016 ) ) ;
#143 = LINE ( 'NONE', #48, #291 ) ;
#144 = ADVANCED_BREP_SHAPE_REPRESENTATION ( '20116-E0W', ( #238, #117 ), #96 ) ;
#145 = DIRECTION ( 'NONE',  ( 0.0000000000000000000, -0.7071067811865401300, 0.7071067811865549000 ) ) ;
#146 = COORDINATED_UNIVERSAL_TIME_OFFSET ( 5, 0, .BEHIND. ) ;
#147 = PERSON_AND_ORGANIZATION_ROLE ( 'design_owner' ) ;
#148 = CONICAL_SURFACE ( 'NONE', #66, 12.69999999999999800, 0.7853981633974498300 ) ;
#149 = CIRCLE ( 'NONE', #78, 12.69999999999999800 ) ;
#150 = CC_DESIGN_DATE_AND_TIME_ASSIGNMENT ( #141, #218, ( #221 ) ) ;
#151 = DIRECTION ( 'NONE',  ( 8.659560562354839200E-017, 0.7071067811865396900, 0.7071067811865553400 ) ) ;
#152 = DIRECTION ( 'NONE',  ( 0.0000000000000000000, 1.000000000000000000, 2.252777917928421500E-016 ) ) ;
#153 = DATE_TIME_ROLE ( 'creation_date' ) ;
#154 = EDGE_CURVE ( 'NONE', #84, #173, #253, .T. ) ;
#155 = APPROVAL_DATE_TIME ( #79, #242 ) ;
#156 = ADVANCED_FACE ( 'NONE', ( #183 ), #193, .T. ) ;
#157 = CALENDAR_DATE ( 2015, 10, 7 ) ;
#158 = DIRECTION ( 'NONE',  ( 0.0000000000000000000, 1.000000000000000000, 2.561107494060246600E-016 ) ) ;
#159 = ORIENTED_EDGE ( 'NONE', *, *, #20, .T. ) ;
#160 = DIRECTION ( 'NONE',  ( 1.000000000000000000, 0.0000000000000000000, 0.0000000000000000000 ) ) ;
#161 = APPROVAL_DATE_TIME ( #138, #195 ) ;
#162 = SPHERICAL_SURFACE ( 'NONE', #64, 61.60300000000000200 ) ;
#163 = CC_DESIGN_APPROVAL ( #242, ( #294 ) ) ;
#164 = DIRECTION ( 'NONE',  ( -0.0000000000000000000, 2.519346158043815900E-016, -1.000000000000000000 ) ) ;
#165 = DIRECTION ( 'NONE',  ( -0.0000000000000000000, 2.519346158043815900E-016, -1.000000000000000000 ) ) ;
#166 = PERSON_AND_ORGANIZATION ( #52, #128 ) ;
#167 = DATE_AND_TIME ( #184, #77 ) ;
#168 = SHAPE_DEFINITION_REPRESENTATION ( #115, #144 ) ;
#169 = FACE_OUTER_BOUND ( 'NONE', #225, .T. ) ;
#170 = DIRECTION ( 'NONE',  ( 1.000000000000000000, 0.0000000000000000000, -0.0000000000000000000 ) ) ;
#171 = COORDINATED_UNIVERSAL_TIME_OFFSET ( 5, 0, .BEHIND. ) ;
#172 = DIRECTION ( 'NONE',  ( -0.0000000000000000000, 2.519346158043815900E-016, -1.000000000000000000 ) ) ;
#173 = VERTEX_POINT ( 'NONE', #280 ) ;
#174 = EDGE_CURVE ( 'NONE', #214, #63, #274, .T. ) ;
#175 = LINE ( 'NONE', #210, #22 ) ;
#176 = CIRCLE ( 'NONE', #301, 12.69999999999999900 ) ;
#177 = APPROVAL ( #94, 'UNSPECIFIED' ) ;
#178 = EDGE_LOOP ( 'NONE', ( #34, #207, #137 ) ) ;
#179 = PERSON_AND_ORGANIZATION ( #52, #128 ) ;
#180 = PERSON_AND_ORGANIZATION ( #52, #128 ) ;
#181 = ORIENTED_EDGE ( 'NONE', *, *, #278, .T. ) ;
#182 = EDGE_CURVE ( 'NONE', #200, #33, #76, .T. ) ;
#183 = FACE_OUTER_BOUND ( 'NONE', #14, .T. ) ;
#184 = CALENDAR_DATE ( 2015, 10, 7 ) ;
#185 = DIRECTION ( 'NONE',  ( 0.0000000000000000000, 0.7071067811865489100, -0.7071067811865462400 ) ) ;
#186 = PRODUCT_DEFINITION_FORMATION_WITH_SPECIFIED_SOURCE ( 'ANY', '', #28, .NOT_KNOWN. ) ;
#187 = ORIENTED_EDGE ( 'NONE', *, *, #199, .T. ) ;
#188 = DIRECTION ( 'NONE',  ( 0.0000000000000000000, 1.000000000000000000, 2.519346158043815900E-016 ) ) ;
#189 =( NAMED_UNIT ( * ) SI_UNIT ( $, .STERADIAN. ) SOLID_ANGLE_UNIT ( ) );
#190 = AXIS2_PLACEMENT_3D ( 'NONE', #121, #109, #158 ) ;
#191 = APPROVAL_PERSON_ORGANIZATION ( #179, #177, #131 ) ;
#192 = SECURITY_CLASSIFICATION_LEVEL ( 'unclassified' ) ;
#193 = CONICAL_SURFACE ( 'NONE', #240, 12.69999999999999800, 0.7853981633974498300 ) ;
#194 = DIRECTION ( 'NONE',  ( 0.0000000000000000000, -2.519346158043815900E-016, 1.000000000000000000 ) ) ;
#195 = APPROVAL ( #110, 'UNSPECIFIED' ) ;
#196 = DIRECTION ( 'NONE',  ( -0.0000000000000000000, 2.519346158043815900E-016, -1.000000000000000000 ) ) ;
#197 = PERSON_AND_ORGANIZATION_ROLE ( 'classification_officer' ) ;
#198 = EDGE_CURVE ( 'NONE', #33, #214, #11, .T. ) ;
#199 = EDGE_CURVE ( 'NONE', #173, #281, #123, .T. ) ;
#200 = VERTEX_POINT ( 'NONE', #101 ) ;
#201 = CARTESIAN_POINT ( 'NONE',  ( 0.0000000000000000000, 12.55857864376267400, 0.3663003727321299000 ) ) ;
#202 = COORDINATED_UNIVERSAL_TIME_OFFSET ( 5, 0, .BEHIND. ) ;
#203 = DIRECTION ( 'NONE',  ( 1.000000000000000000, 0.0000000000000000000, -0.0000000000000000000 ) ) ;
#204 = FACE_OUTER_BOUND ( 'NONE', #50, .T. ) ;
#205 = CALENDAR_DATE ( 2015, 10, 7 ) ;
#206 = FACE_OUTER_BOUND ( 'NONE', #130, .T. ) ;
#207 = ORIENTED_EDGE ( 'NONE', *, *, #182, .T. ) ;
#208 = ORIENTED_EDGE ( 'NONE', *, *, #220, .F. ) ;
#209 = PERSON_AND_ORGANIZATION_ROLE ( 'design_supplier' ) ;
#210 = CARTESIAN_POINT ( 'NONE',  ( 1.555301434917138200E-015, -12.69999999999999800, 0.2248790164948143400 ) ) ;
#211 = CC_DESIGN_APPROVAL ( #177, ( #186 ) ) ;
#212 = ADVANCED_FACE ( 'NONE', ( #213 ), #261, .T. ) ;
#213 = FACE_OUTER_BOUND ( 'NONE', #140, .T. ) ;
#214 = VERTEX_POINT ( 'NONE', #256 ) ;
#215 = CIRCLE ( 'NONE', #288, 12.55857864376268800 ) ;
#216 = LOCAL_TIME ( 11, 26, 36.00000000000000000, #202 ) ;
#217 = ORIENTED_EDGE ( 'NONE', *, *, #40, .F. ) ;
#218 = DATE_TIME_ROLE ( 'classification_date' ) ;
#219 = UNCERTAINTY_MEASURE_WITH_UNIT (LENGTH_MEASURE( 1.000000000000000100E-005 ), #257, 'distance_accuracy_value', 'NONE');
#220 = EDGE_CURVE ( 'NONE', #33, #1, #215, .T. ) ;
#221 = SECURITY_CLASSIFICATION ( '', '', #192 ) ;
#222 = VECTOR ( 'NONE', #151, 1000.000000000000000 ) ;
#223 = ORIENTED_EDGE ( 'NONE', *, *, #40, .T. ) ;
#224 = DIRECTION ( 'NONE',  ( 0.0000000000000000000, 1.000000000000000000, 2.518422369159242900E-016 ) ) ;
#225 = EDGE_LOOP ( 'NONE', ( #24, #8, #181, #44 ) ) ;
#226 = CARTESIAN_POINT ( 'NONE',  ( 0.0000000000000000000, 3.336215078778706500E-017, 0.2248790164948175400 ) ) ;
#227 = VECTOR ( 'NONE', #145, 1000.000000000000000 ) ;
#228 = CARTESIAN_POINT ( 'NONE',  ( 1.546641874354783600E-015, 12.55857864376269200, -1.659999999999999900 ) ) ;
#229 = CARTESIAN_POINT ( 'NONE',  ( 0.0000000000000000000, 12.69999999999999800, 0.2248790164948207300 ) ) ;
#230 = COORDINATED_UNIVERSAL_TIME_OFFSET ( 5, 0, .BEHIND. ) ;
#231 = AXIS2_PLACEMENT_3D ( 'NONE', #289, #103, #142 ) ;
#232 = CARTESIAN_POINT ( 'NONE',  ( 0.0000000000000000000, 5.082284216461499400E-016, -1.660000000000001500 ) ) ;
#233 = DIRECTION ( 'NONE',  ( -0.0000000000000000000, 2.519346158043815900E-016, -1.000000000000000000 ) ) ;
#234 = LINE ( 'NONE', #3, #227 ) ;
#235 = ORIENTED_EDGE ( 'NONE', *, *, #108, .F. ) ;
#236 = DIRECTION ( 'NONE',  ( 0.0000000000000000000, 1.000000000000000000, 2.518422369159242900E-016 ) ) ;
#237 = CALENDAR_DATE ( 2015, 10, 7 ) ;
#238 = MANIFOLD_SOLID_BREP ( '20116-001-1-solid1', #270 ) ;
#239 = ORIENTED_EDGE ( 'NONE', *, *, #246, .T. ) ;
#240 = AXIS2_PLACEMENT_3D ( 'NONE', #286, #21, #245 ) ;
#241 = CIRCLE ( 'NONE', #60, 12.55857864376269200 ) ;
#242 = APPROVAL ( #295, 'UNSPECIFIED' ) ;
#243 = LOCAL_TIME ( 11, 26, 36.00000000000000000, #254 ) ;
#244 = VERTEX_POINT ( 'NONE', #69 ) ;
#245 = DIRECTION ( 'NONE',  ( 0.0000000000000000000, 1.000000000000000000, 2.518422369159242900E-016 ) ) ;
#246 = EDGE_CURVE ( 'NONE', #1, #33, #41, .T. ) ;
#247 = APPROVAL_PERSON_ORGANIZATION ( #166, #195, #67 ) ;
#248 = ORIENTED_EDGE ( 'NONE', *, *, #74, .T. ) ;
#249 = AXIS2_PLACEMENT_3D ( 'NONE', #226, #7, #224 ) ;
#250 = CARTESIAN_POINT ( 'NONE',  ( 0.0000000000000000000, -2.266784262394086200E-018, 0.3663003727321267900 ) ) ;
#251 = ORIENTED_EDGE ( 'NONE', *, *, #174, .F. ) ;
#252 = PERSON_AND_ORGANIZATION_ROLE ( 'creator' ) ;
#253 = LINE ( 'NONE', #89, #222 ) ;
#254 = COORDINATED_UNIVERSAL_TIME_OFFSET ( 5, 0, .BEHIND. ) ;
#255 = AXIS2_PLACEMENT_3D ( 'NONE', #91, #5, #81 ) ;
#256 = CARTESIAN_POINT ( 'NONE',  ( 0.0000000000000000000, 12.69999999999999800, 0.2248790164948207300 ) ) ;
#257 =( LENGTH_UNIT ( ) NAMED_UNIT ( * ) SI_UNIT ( .MILLI., .METRE. ) );
#258 = EDGE_LOOP ( 'NONE', ( #105, #217, #159, #30 ) ) ;
#259 = CALENDAR_DATE ( 2015, 10, 7 ) ;
#260 = EDGE_CURVE ( 'NONE', #281, #173, #176, .T. ) ;
#261 = CONICAL_SURFACE ( 'NONE', #231, 12.55857864376269200, 0.7853981633974375100 ) ;
#262 = CC_DESIGN_PERSON_AND_ORGANIZATION_ASSIGNMENT ( #133, #37, ( #186 ) ) ;
#263 = ADVANCED_FACE ( 'NONE', ( #206 ), #284, .T. ) ;
#264 = CC_DESIGN_APPROVAL ( #195, ( #221 ) ) ;
#265 = VECTOR ( 'NONE', #185, 999.9999999999998900 ) ;
#266 = PERSON_AND_ORGANIZATION ( #52, #128 ) ;
#267 = CARTESIAN_POINT ( 'NONE',  ( 0.0000000000000000000, 0.0000000000000000000, 0.0000000000000000000 ) ) ;
#268 = CC_DESIGN_SECURITY_CLASSIFICATION ( #221, ( #186 ) ) ;
#269 = AXIS2_PLACEMENT_3D ( 'NONE', #75, #172, #71 ) ;
#270 = CLOSED_SHELL ( 'NONE', ( #212, #263, #156, #292, #86, #127, #122, #83, #12 ) ) ;
#271 = APPROVAL_DATE_TIME ( #88, #177 ) ;
#272 = APPLICATION_PROTOCOL_DEFINITION ( 'international standard', 'config_control_design', 1994, #92 ) ;
#273 = EDGE_CURVE ( 'NONE', #200, #1, #102, .T. ) ;
#274 = CIRCLE ( 'NONE', #249, 12.69999999999999800 ) ;
#275 = AXIS2_PLACEMENT_3D ( 'NONE', #39, #27, #114 ) ;
#276 = LOCAL_TIME ( 11, 26, 36.00000000000000000, #146 ) ;
#277 = PRODUCT_RELATED_PRODUCT_CATEGORY ( 'detail', '', ( #28 ) ) ;
#278 = EDGE_CURVE ( 'NONE', #214, #173, #118, .T. ) ;
#279 = ORIENTED_EDGE ( 'NONE', *, *, #220, .T. ) ;
#280 = CARTESIAN_POINT ( 'NONE',  ( 0.0000000000000000000, 12.69999999999999900, -1.518578643762688900 ) ) ;
#281 = VERTEX_POINT ( 'NONE', #139 ) ;
#282 = DIRECTION ( 'NONE',  ( 0.0000000000000000000, 1.000000000000000000, 2.561107494060246600E-016 ) ) ;
#283 = DIRECTION ( 'NONE',  ( -0.0000000000000000000, 2.519346158043815900E-016, -1.000000000000000000 ) ) ;
#284 = CYLINDRICAL_SURFACE ( 'NONE', #6, 12.69999999999999900 ) ;
#285 =( NAMED_UNIT ( * ) PLANE_ANGLE_UNIT ( ) SI_UNIT ( $, .RADIAN. ) );
#286 = CARTESIAN_POINT ( 'NONE',  ( 0.0000000000000000000, 3.336215078778706500E-017, 0.2248790164948175400 ) ) ;
#287 = ORIENTED_EDGE ( 'NONE', *, *, #174, .T. ) ;
#288 = AXIS2_PLACEMENT_3D ( 'NONE', #125, #298, #16 ) ;
#289 = CARTESIAN_POINT ( 'NONE',  ( 0.0000000000000000000, 5.082284216461503300E-016, -1.660000000000003300 ) ) ;
#290 = CARTESIAN_POINT ( 'NONE',  ( 0.0000000000000000000, 5.082284216461503300E-016, -1.660000000000003300 ) ) ;
#291 = VECTOR ( 'NONE', #196, 1000.000000000000000 ) ;
#292 = ADVANCED_FACE ( 'NONE', ( #42 ), #57, .T. ) ;
#293 = AXIS2_PLACEMENT_3D ( 'NONE', #250, #165, #38 ) ;
#294 = PRODUCT_DEFINITION ( 'UNKNOWN', '', #186, #72 ) ;
#295 = APPROVAL_STATUS ( 'not_yet_approved' ) ;
#296 = CC_DESIGN_PERSON_AND_ORGANIZATION_ASSIGNMENT ( #126, #209, ( #186 ) ) ;
#297 = FACE_OUTER_BOUND ( 'NONE', #178, .T. ) ;
#298 = DIRECTION ( 'NONE',  ( -0.0000000000000000000, 2.519346158043815900E-016, -1.000000000000000000 ) ) ;
#299 = EDGE_CURVE ( 'NONE', #63, #214, #149, .T. ) ;
#300 = DIRECTION ( 'NONE',  ( 0.0000000000000000000, -1.000000000000000000, -2.589947962838886900E-016 ) ) ;
#301 = AXIS2_PLACEMENT_3D ( 'NONE', #23, #18, #282 ) ;
ENDSEC;
END-ISO-10303-21;
