ISO-10303-21;
HEADER;
FILE_DESCRIPTION (( 'STEP AP203' ),
    '1' );
FILE_NAME ('Web Model 83359_83359.step',
    '2017-04-26T17:34:53',
    ( '' ),
    ( '' ),
    'SwSTEP 2.0',
    'SolidWorks 2016',
    '' );
FILE_SCHEMA (( 'CONFIG_CONTROL_DESIGN' ));
ENDSEC;

DATA;
#1 = DATE_TIME_ROLE ( 'creation_date' ) ;
#2 = APPROVAL_STATUS ( 'not_yet_approved' ) ;
#3 = APPROVAL_DATE_TIME ( #51, #5 ) ;
#4 = PERSON_AND_ORGANIZATION ( #121, #90 ) ;
#5 = APPROVAL ( #134, 'UNSPECIFIED' ) ;
#6 = PLANE ( 'NONE',  #73 ) ;
#7 = SECURITY_CLASSIFICATION_LEVEL ( 'unclassified' ) ;
#8 = DIRECTION ( 'NONE',  ( 0.0000000000000000000, 0.0000000000000000000, 1.000000000000000000 ) ) ;
#9 = PERSON_AND_ORGANIZATION_ROLE ( 'design_owner' ) ;
#10 = VERTEX_POINT ( 'NONE', #57 ) ;
#11 = CARTESIAN_POINT ( 'NONE',  ( 2.500000000000000000, 3.061616997868383100E-016, 0.0000000000000000000 ) ) ;
#12 = LOCAL_TIME ( 13, 34, 53.00000000000000000, #104 ) ;
#13 = ORIENTED_EDGE ( 'NONE', *, *, #100, .F. ) ;
#14 = ORIENTED_EDGE ( 'NONE', *, *, #100, .T. ) ;
#15 = ADVANCED_FACE ( 'NONE', ( #133 ), #69, .F. ) ;
#16 = CC_DESIGN_PERSON_AND_ORGANIZATION_ASSIGNMENT ( #96, #119, ( #38 ) ) ;
#17 = CARTESIAN_POINT ( 'NONE',  ( 0.0000000000000000000, 0.0000000000000000000, 0.0000000000000000000 ) ) ;
#18 = COORDINATED_UNIVERSAL_TIME_OFFSET ( 5, 0, .BEHIND. ) ;
#19 = EDGE_CURVE ( 'NONE', #102, #140, #33, .T. ) ;
#20 = DIRECTION ( 'NONE',  ( 0.0000000000000000000, 0.0000000000000000000, 1.000000000000000000 ) ) ;
#21 = VECTOR ( 'NONE', #94, 1000.000000000000000 ) ;
#22 = CIRCLE ( 'NONE', #135, 2.500000000000000000 ) ;
#23 = PRODUCT_DEFINITION ( 'UNKNOWN', '', #67, #137 ) ;
#24 = PERSON_AND_ORGANIZATION ( #121, #90 ) ;
#25 = DIRECTION ( 'NONE',  ( 1.000000000000000000, 0.0000000000000000000, 0.0000000000000000000 ) ) ;
#26 = VERTEX_POINT ( 'NONE', #126 ) ;
#27 = ORIENTED_EDGE ( 'NONE', *, *, #103, .F. ) ;
#28 = PERSON_AND_ORGANIZATION ( #121, #90 ) ;
#29 = CC_DESIGN_PERSON_AND_ORGANIZATION_ASSIGNMENT ( #101, #170, ( #23 ) ) ;
#30 = SHAPE_DEFINITION_REPRESENTATION ( #163, #167 ) ;
#31 = APPROVAL ( #56, 'UNSPECIFIED' ) ;
#32 = DATE_AND_TIME ( #166, #155 ) ;
#33 = CIRCLE ( 'NONE', #48, 2.500000000000000000 ) ;
#34 = APPLICATION_CONTEXT ( 'configuration controlled 3d designs of mechanical parts and assemblies' ) ;
#35 = ADVANCED_FACE ( 'NONE', ( #47 ), #165, .T. ) ;
#36 = PRODUCT ( 'Web Model 83359_83359', 'Web Model 83359_83359', '', ( #151 ) ) ;
#37 = DIRECTION ( 'NONE',  ( 0.0000000000000000000, 0.0000000000000000000, 1.000000000000000000 ) ) ;
#38 = SECURITY_CLASSIFICATION ( '', '', #7 ) ;
#39 = CIRCLE ( 'NONE', #153, 2.500000000000000000 ) ;
#40 = CC_DESIGN_PERSON_AND_ORGANIZATION_ASSIGNMENT ( #173, #9, ( #36 ) ) ;
#41 = ORIENTED_EDGE ( 'NONE', *, *, #112, .T. ) ;
#42 = DIRECTION ( 'NONE',  ( 0.0000000000000000000, 0.0000000000000000000, 1.000000000000000000 ) ) ;
#43 = CARTESIAN_POINT ( 'NONE',  ( 2.500000000000000000, 3.061616997868383100E-016, 1.100000000000000100 ) ) ;
#44 = EDGE_LOOP ( 'NONE', ( #128, #53, #14, #58 ) ) ;
#45 = CARTESIAN_POINT ( 'NONE',  ( 0.0000000000000000000, 0.0000000000000000000, 1.100000000000000100 ) ) ;
#46 = CARTESIAN_POINT ( 'NONE',  ( 0.0000000000000000000, 0.0000000000000000000, 1.100000000000000100 ) ) ;
#47 = FACE_OUTER_BOUND ( 'NONE', #54, .T. ) ;
#48 = AXIS2_PLACEMENT_3D ( 'NONE', #76, #8, #81 ) ;
#49 = ADVANCED_FACE ( 'NONE', ( #99 ), #92, .T. ) ;
#50 = PRODUCT_RELATED_PRODUCT_CATEGORY ( 'detail', '', ( #36 ) ) ;
#51 = DATE_AND_TIME ( #142, #70 ) ;
#52 = DIRECTION ( 'NONE',  ( 0.0000000000000000000, 0.0000000000000000000, 1.000000000000000000 ) ) ;
#53 = ORIENTED_EDGE ( 'NONE', *, *, #112, .F. ) ;
#54 = EDGE_LOOP ( 'NONE', ( #27, #89, #97, #13 ) ) ;
#55 = CARTESIAN_POINT ( 'NONE',  ( 0.0000000000000000000, 0.0000000000000000000, 1.100000000000000100 ) ) ;
#56 = APPROVAL_STATUS ( 'not_yet_approved' ) ;
#57 = CARTESIAN_POINT ( 'NONE',  ( 2.500000000000000000, 3.061616997868383100E-016, 1.100000000000000100 ) ) ;
#58 = ORIENTED_EDGE ( 'NONE', *, *, #19, .T. ) ;
#59 = APPROVAL_DATE_TIME ( #122, #31 ) ;
#60 = CC_DESIGN_SECURITY_CLASSIFICATION ( #38, ( #67 ) ) ;
#61 = APPROVAL_ROLE ( '' ) ;
#62 = LINE ( 'NONE', #43, #75 ) ;
#63 =( NAMED_UNIT ( * ) SI_UNIT ( $, .STERADIAN. ) SOLID_ANGLE_UNIT ( ) );
#64 = CC_DESIGN_PERSON_AND_ORGANIZATION_ASSIGNMENT ( #28, #174, ( #67 ) ) ;
#65 = DIRECTION ( 'NONE',  ( -1.000000000000000000, 0.0000000000000000000, 0.0000000000000000000 ) ) ;
#66 = CALENDAR_DATE ( 2017, 26, 4 ) ;
#67 = PRODUCT_DEFINITION_FORMATION_WITH_SPECIFIED_SOURCE ( 'ANY', '', #36, .NOT_KNOWN. ) ;
#68 = APPROVAL_ROLE ( '' ) ;
#69 = PLANE ( 'NONE',  #148 ) ;
#70 = LOCAL_TIME ( 13, 34, 53.00000000000000000, #80 ) ;
#71 = ORIENTED_EDGE ( 'NONE', *, *, #19, .F. ) ;
#72 = COORDINATED_UNIVERSAL_TIME_OFFSET ( 5, 0, .BEHIND. ) ;
#73 = AXIS2_PLACEMENT_3D ( 'NONE', #129, #117, #171 ) ;
#74 = APPROVAL_DATE_TIME ( #32, #132 ) ;
#75 = VECTOR ( 'NONE', #168, 1000.000000000000000 ) ;
#76 = CARTESIAN_POINT ( 'NONE',  ( 0.0000000000000000000, 0.0000000000000000000, 0.0000000000000000000 ) ) ;
#77 = ADVANCED_FACE ( 'NONE', ( #162 ), #6, .T. ) ;
#78 = CC_DESIGN_DATE_AND_TIME_ASSIGNMENT ( #146, #85, ( #38 ) ) ;
#79 = DATE_AND_TIME ( #66, #12 ) ;
#80 = COORDINATED_UNIVERSAL_TIME_OFFSET ( 5, 0, .BEHIND. ) ;
#81 = DIRECTION ( 'NONE',  ( 1.000000000000000000, 0.0000000000000000000, 0.0000000000000000000 ) ) ;
#82 = CALENDAR_DATE ( 2017, 26, 4 ) ;
#83 = PERSON_AND_ORGANIZATION_ROLE ( 'design_supplier' ) ;
#84 = CC_DESIGN_PERSON_AND_ORGANIZATION_ASSIGNMENT ( #95, #83, ( #67 ) ) ;
#85 = DATE_TIME_ROLE ( 'classification_date' ) ;
#86 = CALENDAR_DATE ( 2017, 26, 4 ) ;
#87 = CLOSED_SHELL ( 'NONE', ( #35, #49, #77, #15 ) ) ;
#88 = COORDINATED_UNIVERSAL_TIME_OFFSET ( 5, 0, .BEHIND. ) ;
#89 = ORIENTED_EDGE ( 'NONE', *, *, #130, .T. ) ;
#90 = ORGANIZATION ( 'UNSPECIFIED', 'UNSPECIFIED', '' ) ;
#91 = DIRECTION ( 'NONE',  ( -0.0000000000000000000, -0.0000000000000000000, -1.000000000000000000 ) ) ;
#92 = CYLINDRICAL_SURFACE ( 'NONE', #115, 2.500000000000000000 ) ;
#93 = DIRECTION ( 'NONE',  ( 0.0000000000000000000, 0.0000000000000000000, 1.000000000000000000 ) ) ;
#94 = DIRECTION ( 'NONE',  ( -0.0000000000000000000, -0.0000000000000000000, -1.000000000000000000 ) ) ;
#95 = PERSON_AND_ORGANIZATION ( #121, #90 ) ;
#96 = PERSON_AND_ORGANIZATION ( #121, #90 ) ;
#97 = ORIENTED_EDGE ( 'NONE', *, *, #158, .T. ) ;
#98 = LINE ( 'NONE', #143, #21 ) ;
#99 = FACE_OUTER_BOUND ( 'NONE', #44, .T. ) ;
#100 = EDGE_CURVE ( 'NONE', #26, #102, #98, .T. ) ;
#101 = PERSON_AND_ORGANIZATION ( #121, #90 ) ;
#102 = VERTEX_POINT ( 'NONE', #160 ) ;
#103 = EDGE_CURVE ( 'NONE', #10, #26, #157, .T. ) ;
#104 = COORDINATED_UNIVERSAL_TIME_OFFSET ( 5, 0, .BEHIND. ) ;
#105 = APPROVAL_PERSON_ORGANIZATION ( #24, #132, #161 ) ;
#106 = AXIS2_PLACEMENT_3D ( 'NONE', #46, #152, #65 ) ;
#107 = CARTESIAN_POINT ( 'NONE',  ( 0.0000000000000000000, 0.0000000000000000000, 0.0000000000000000000 ) ) ;
#108 = ORIENTED_EDGE ( 'NONE', *, *, #158, .F. ) ;
#109 = CC_DESIGN_APPROVAL ( #5, ( #67 ) ) ;
#110 = APPLICATION_PROTOCOL_DEFINITION ( 'international standard', 'config_control_design', 1994, #34 ) ;
#111 = CARTESIAN_POINT ( 'NONE',  ( 0.0000000000000000000, 0.0000000000000000000, 1.100000000000000100 ) ) ;
#112 = EDGE_CURVE ( 'NONE', #26, #10, #39, .T. ) ;
#113 = CC_DESIGN_APPROVAL ( #132, ( #38 ) ) ;
#114 = LOCAL_TIME ( 13, 34, 53.00000000000000000, #18 ) ;
#115 = AXIS2_PLACEMENT_3D ( 'NONE', #45, #91, #145 ) ;
#116 = APPROVAL_PERSON_ORGANIZATION ( #4, #31, #68 ) ;
#117 = DIRECTION ( 'NONE',  ( 0.0000000000000000000, 0.0000000000000000000, 1.000000000000000000 ) ) ;
#118 = APPLICATION_CONTEXT ( 'configuration controlled 3d designs of mechanical parts and assemblies' ) ;
#119 = PERSON_AND_ORGANIZATION_ROLE ( 'classification_officer' ) ;
#120 = CARTESIAN_POINT ( 'NONE',  ( 0.0000000000000000000, 0.0000000000000000000, 0.0000000000000000000 ) ) ;
#121 = PERSON ( 'UNSPECIFIED', 'UNSPECIFIED', 'UNSPECIFIED', ('UNSPECIFIED'), ('UNSPECIFIED'), ('UNSPECIFIED') ) ;
#122 = DATE_AND_TIME ( #86, #114 ) ;
#123 = AXIS2_PLACEMENT_3D ( 'NONE', #111, #20, #124 ) ;
#124 = DIRECTION ( 'NONE',  ( 1.000000000000000000, 0.0000000000000000000, 0.0000000000000000000 ) ) ;
#125 = DIRECTION ( 'NONE',  ( 1.000000000000000000, 0.0000000000000000000, -0.0000000000000000000 ) ) ;
#126 = CARTESIAN_POINT ( 'NONE',  ( -2.500000000000000000, 0.0000000000000000000, 1.100000000000000100 ) ) ;
#127 = EDGE_LOOP ( 'NONE', ( #71, #108 ) ) ;
#128 = ORIENTED_EDGE ( 'NONE', *, *, #130, .F. ) ;
#129 = CARTESIAN_POINT ( 'NONE',  ( 0.0000000000000000000, 0.0000000000000000000, 1.100000000000000100 ) ) ;
#130 = EDGE_CURVE ( 'NONE', #10, #140, #62, .T. ) ;
#131 = LOCAL_TIME ( 13, 34, 53.00000000000000000, #72 ) ;
#132 = APPROVAL ( #2, 'UNSPECIFIED' ) ;
#133 = FACE_OUTER_BOUND ( 'NONE', #127, .T. ) ;
#134 = APPROVAL_STATUS ( 'not_yet_approved' ) ;
#135 = AXIS2_PLACEMENT_3D ( 'NONE', #107, #93, #156 ) ;
#136 = PERSON_AND_ORGANIZATION ( #121, #90 ) ;
#137 = DESIGN_CONTEXT ( 'detailed design', #118, 'design' ) ;
#138 = EDGE_LOOP ( 'NONE', ( #41, #172 ) ) ;
#139 = AXIS2_PLACEMENT_3D ( 'NONE', #120, #42, #149 ) ;
#140 = VERTEX_POINT ( 'NONE', #11 ) ;
#141 =( NAMED_UNIT ( * ) PLANE_ANGLE_UNIT ( ) SI_UNIT ( $, .RADIAN. ) );
#142 = CALENDAR_DATE ( 2017, 26, 4 ) ;
#143 = CARTESIAN_POINT ( 'NONE',  ( -2.500000000000000000, 0.0000000000000000000, 1.100000000000000100 ) ) ;
#144 = UNCERTAINTY_MEASURE_WITH_UNIT (LENGTH_MEASURE( 1.000000000000000100E-005 ), #159, 'distance_accuracy_value', 'NONE');
#145 = DIRECTION ( 'NONE',  ( -1.000000000000000000, 0.0000000000000000000, 0.0000000000000000000 ) ) ;
#146 = DATE_AND_TIME ( #82, #131 ) ;
#147 =( GEOMETRIC_REPRESENTATION_CONTEXT ( 3 ) GLOBAL_UNCERTAINTY_ASSIGNED_CONTEXT ( ( #144 ) ) GLOBAL_UNIT_ASSIGNED_CONTEXT ( ( #159, #141, #63 ) ) REPRESENTATION_CONTEXT ( 'NONE', 'WORKASPACE' ) );
#148 = AXIS2_PLACEMENT_3D ( 'NONE', #17, #37, #125 ) ;
#149 = DIRECTION ( 'NONE',  ( 1.000000000000000000, 0.0000000000000000000, 0.0000000000000000000 ) ) ;
#150 = APPLICATION_PROTOCOL_DEFINITION ( 'international standard', 'config_control_design', 1994, #118 ) ;
#151 = MECHANICAL_CONTEXT ( 'NONE', #34, 'mechanical' ) ;
#152 = DIRECTION ( 'NONE',  ( -0.0000000000000000000, -0.0000000000000000000, -1.000000000000000000 ) ) ;
#153 = AXIS2_PLACEMENT_3D ( 'NONE', #55, #52, #25 ) ;
#154 = CC_DESIGN_DATE_AND_TIME_ASSIGNMENT ( #79, #1, ( #23 ) ) ;
#155 = LOCAL_TIME ( 13, 34, 53.00000000000000000, #88 ) ;
#156 = DIRECTION ( 'NONE',  ( 1.000000000000000000, 0.0000000000000000000, 0.0000000000000000000 ) ) ;
#157 = CIRCLE ( 'NONE', #123, 2.500000000000000000 ) ;
#158 = EDGE_CURVE ( 'NONE', #140, #102, #22, .T. ) ;
#159 =( LENGTH_UNIT ( ) NAMED_UNIT ( * ) SI_UNIT ( .MILLI., .METRE. ) );
#160 = CARTESIAN_POINT ( 'NONE',  ( -2.500000000000000000, 0.0000000000000000000, 0.0000000000000000000 ) ) ;
#161 = APPROVAL_ROLE ( '' ) ;
#162 = FACE_OUTER_BOUND ( 'NONE', #138, .T. ) ;
#163 = PRODUCT_DEFINITION_SHAPE ( 'NONE', 'NONE',  #23 ) ;
#164 = APPROVAL_PERSON_ORGANIZATION ( #136, #5, #61 ) ;
#165 = CYLINDRICAL_SURFACE ( 'NONE', #106, 2.500000000000000000 ) ;
#166 = CALENDAR_DATE ( 2017, 26, 4 ) ;
#167 = ADVANCED_BREP_SHAPE_REPRESENTATION ( 'Web Model 83359_83359', ( #169, #139 ), #147 ) ;
#168 = DIRECTION ( 'NONE',  ( -0.0000000000000000000, -0.0000000000000000000, -1.000000000000000000 ) ) ;
#169 = MANIFOLD_SOLID_BREP ( 'Boss-Extrude1', #87 ) ;
#170 = PERSON_AND_ORGANIZATION_ROLE ( 'creator' ) ;
#171 = DIRECTION ( 'NONE',  ( 1.000000000000000000, 0.0000000000000000000, -0.0000000000000000000 ) ) ;
#172 = ORIENTED_EDGE ( 'NONE', *, *, #103, .T. ) ;
#173 = PERSON_AND_ORGANIZATION ( #121, #90 ) ;
#174 = PERSON_AND_ORGANIZATION_ROLE ( 'creator' ) ;
#175 = CC_DESIGN_APPROVAL ( #31, ( #23 ) ) ;
ENDSEC;
END-ISO-10303-21;
