ISO-10303-21;
HEADER;
FILE_DESCRIPTION (( 'STEP AP203' ),
    '1' );
FILE_NAME ('Web Model 45255_45642.step',
    '2017-04-10T16:38:57',
    ( '' ),
    ( '' ),
    'SwSTEP 2.0',
    'SolidWorks 2016',
    '' );
FILE_SCHEMA (( 'CONFIG_CONTROL_DESIGN' ));
ENDSEC;

DATA;
#1 = CARTESIAN_POINT ( 'NONE',  ( -17.50000000000000700, 1.734723475976807100E-015, 2.000000000000000000 ) ) ;
#2 = PRODUCT_RELATED_PRODUCT_CATEGORY ( 'detail', '', ( #112 ) ) ;
#3 = ORIENTED_EDGE ( 'NONE', *, *, #59, .F. ) ;
#4 = DIRECTION ( 'NONE',  ( 1.000000000000000000, 0.0000000000000000000, 0.0000000000000000000 ) ) ;
#5 = APPROVAL_PERSON_ORGANIZATION ( #39, #40, #41 ) ;
#6 = DESIGN_CONTEXT ( 'detailed design', #76, 'design' ) ;
#7 = EDGE_CURVE ( 'NONE', #61, #99, #131, .T. ) ;
#8 = DATE_TIME_ROLE ( 'classification_date' ) ;
#9 = SECURITY_CLASSIFICATION_LEVEL ( 'unclassified' ) ;
#10 = DIRECTION ( 'NONE',  ( 0.0000000000000000000, 0.0000000000000000000, 1.000000000000000000 ) ) ;
#11 = DIRECTION ( 'NONE',  ( -0.0000000000000000000, -0.0000000000000000000, -1.000000000000000000 ) ) ;
#12 = AXIS2_PLACEMENT_3D ( 'NONE', #163, #10, #88 ) ;
#13 = CALENDAR_DATE ( 2017, 10, 4 ) ;
#14 = CARTESIAN_POINT ( 'NONE',  ( 1.734723475976807100E-015, 1.734723475976807100E-015, 0.0000000000000000000 ) ) ;
#15 = ORIENTED_EDGE ( 'NONE', *, *, #119, .F. ) ;
#16 = ADVANCED_FACE ( 'NONE', ( #170 ), #68, .T. ) ;
#17 = DATE_AND_TIME ( #53, #85 ) ;
#18 = CIRCLE ( 'NONE', #133, 17.50000000000000700 ) ;
#19 = CLOSED_SHELL ( 'NONE', ( #169, #32, #16, #73 ) ) ;
#20 = CC_DESIGN_PERSON_AND_ORGANIZATION_ASSIGNMENT ( #71, #146, ( #112 ) ) ;
#21 = PERSON_AND_ORGANIZATION ( #82, #109 ) ;
#22 = DIRECTION ( 'NONE',  ( 0.0000000000000000000, 0.0000000000000000000, 1.000000000000000000 ) ) ;
#23 = CARTESIAN_POINT ( 'NONE',  ( -17.50000000000000700, 1.734723475976807100E-015, 0.0000000000000000000 ) ) ;
#24 = LINE ( 'NONE', #148, #87 ) ;
#25 = LOCAL_TIME ( 12, 38, 57.00000000000000000, #60 ) ;
#26 = APPLICATION_PROTOCOL_DEFINITION ( 'international standard', 'config_control_design', 1994, #76 ) ;
#27 = DIRECTION ( 'NONE',  ( -0.0000000000000000000, -0.0000000000000000000, -1.000000000000000000 ) ) ;
#28 = DIRECTION ( 'NONE',  ( -0.0000000000000000000, -0.0000000000000000000, -1.000000000000000000 ) ) ;
#29 = ORIENTED_EDGE ( 'NONE', *, *, #44, .T. ) ;
#30 = CALENDAR_DATE ( 2017, 10, 4 ) ;
#31 = PRODUCT_DEFINITION ( 'UNKNOWN', '', #72, #6 ) ;
#32 = ADVANCED_FACE ( 'NONE', ( #94 ), #127, .T. ) ;
#33 = ORIENTED_EDGE ( 'NONE', *, *, #98, .F. ) ;
#34 = DATE_AND_TIME ( #69, #105 ) ;
#35 = MANIFOLD_SOLID_BREP ( 'Extrude1', #19 ) ;
#36 = ORIENTED_EDGE ( 'NONE', *, *, #137, .T. ) ;
#37 = PERSON_AND_ORGANIZATION_ROLE ( 'creator' ) ;
#38 = MECHANICAL_CONTEXT ( 'NONE', #161, 'mechanical' ) ;
#39 = PERSON_AND_ORGANIZATION ( #82, #109 ) ;
#40 = APPROVAL ( #51, 'UNSPECIFIED' ) ;
#41 = APPROVAL_ROLE ( '' ) ;
#42 = CARTESIAN_POINT ( 'NONE',  ( 1.734723475976807100E-015, 1.734723475976807100E-015, 2.000000000000000000 ) ) ;
#43 = CARTESIAN_POINT ( 'NONE',  ( 17.50000000000000700, 3.877855374484676900E-015, 2.000000000000000000 ) ) ;
#44 = EDGE_CURVE ( 'NONE', #78, #103, #156, .T. ) ;
#45 = DIRECTION ( 'NONE',  ( 1.000000000000000000, 0.0000000000000000000, 0.0000000000000000000 ) ) ;
#46 = CC_DESIGN_APPROVAL ( #40, ( #31 ) ) ;
#47 = LOCAL_TIME ( 12, 38, 57.00000000000000000, #81 ) ;
#48 = CARTESIAN_POINT ( 'NONE',  ( 17.50000000000000700, 3.877855374484676900E-015, 2.000000000000000000 ) ) ;
#49 = SHAPE_DEFINITION_REPRESENTATION ( #74, #159 ) ;
#50 = PERSON_AND_ORGANIZATION_ROLE ( 'creator' ) ;
#51 = APPROVAL_STATUS ( 'not_yet_approved' ) ;
#52 = DIRECTION ( 'NONE',  ( 1.000000000000000000, 0.0000000000000000000, 0.0000000000000000000 ) ) ;
#53 = CALENDAR_DATE ( 2017, 10, 4 ) ;
#54 = FACE_OUTER_BOUND ( 'NONE', #91, .T. ) ;
#55 = DIRECTION ( 'NONE',  ( 1.000000000000000000, 0.0000000000000000000, -0.0000000000000000000 ) ) ;
#56 = PERSON_AND_ORGANIZATION ( #82, #109 ) ;
#57 = CC_DESIGN_PERSON_AND_ORGANIZATION_ASSIGNMENT ( #139, #50, ( #31 ) ) ;
#58 = CIRCLE ( 'NONE', #114, 17.50000000000000700 ) ;
#59 = EDGE_CURVE ( 'NONE', #61, #78, #24, .T. ) ;
#60 = COORDINATED_UNIVERSAL_TIME_OFFSET ( 5, 0, .BEHIND. ) ;
#61 = VERTEX_POINT ( 'NONE', #1 ) ;
#62 = DIRECTION ( 'NONE',  ( 0.0000000000000000000, 0.0000000000000000000, 1.000000000000000000 ) ) ;
#63 = LOCAL_TIME ( 12, 38, 57.00000000000000000, #100 ) ;
#64 = CC_DESIGN_DATE_AND_TIME_ASSIGNMENT ( #171, #75, ( #31 ) ) ;
#65 = ORIENTED_EDGE ( 'NONE', *, *, #7, .T. ) ;
#66 = DIRECTION ( 'NONE',  ( -0.0000000000000000000, -0.0000000000000000000, -1.000000000000000000 ) ) ;
#67 = CARTESIAN_POINT ( 'NONE',  ( 1.734723475976807100E-015, 1.734723475976807100E-015, 0.0000000000000000000 ) ) ;
#68 = PLANE ( 'NONE',  #84 ) ;
#69 = CALENDAR_DATE ( 2017, 10, 4 ) ;
#70 = ORIENTED_EDGE ( 'NONE', *, *, #7, .F. ) ;
#71 = PERSON_AND_ORGANIZATION ( #82, #109 ) ;
#72 = PRODUCT_DEFINITION_FORMATION_WITH_SPECIFIED_SOURCE ( 'ANY', '', #112, .NOT_KNOWN. ) ;
#73 = ADVANCED_FACE ( 'NONE', ( #54 ), #164, .F. ) ;
#74 = PRODUCT_DEFINITION_SHAPE ( 'NONE', 'NONE',  #31 ) ;
#75 = DATE_TIME_ROLE ( 'creation_date' ) ;
#76 = APPLICATION_CONTEXT ( 'configuration controlled 3d designs of mechanical parts and assemblies' ) ;
#77 = DIRECTION ( 'NONE',  ( 0.0000000000000000000, 0.0000000000000000000, 1.000000000000000000 ) ) ;
#78 = VERTEX_POINT ( 'NONE', #23 ) ;
#79 =( LENGTH_UNIT ( ) NAMED_UNIT ( * ) SI_UNIT ( .MILLI., .METRE. ) );
#80 = APPROVAL ( #135, 'UNSPECIFIED' ) ;
#81 = COORDINATED_UNIVERSAL_TIME_OFFSET ( 5, 0, .BEHIND. ) ;
#82 = PERSON ( 'UNSPECIFIED', 'UNSPECIFIED', 'UNSPECIFIED', ('UNSPECIFIED'), ('UNSPECIFIED'), ('UNSPECIFIED') ) ;
#83 = VECTOR ( 'NONE', #11, 1000.000000000000000 ) ;
#84 = AXIS2_PLACEMENT_3D ( 'NONE', #142, #22, #152 ) ;
#85 = LOCAL_TIME ( 12, 38, 57.00000000000000000, #125 ) ;
#86 = EDGE_LOOP ( 'NONE', ( #15, #36, #107, #3 ) ) ;
#87 = VECTOR ( 'NONE', #66, 1000.000000000000000 ) ;
#88 = DIRECTION ( 'NONE',  ( 1.000000000000000000, 0.0000000000000000000, 0.0000000000000000000 ) ) ;
#89 = DIRECTION ( 'NONE',  ( 0.0000000000000000000, 0.0000000000000000000, 1.000000000000000000 ) ) ;
#90 = APPROVAL_DATE_TIME ( #128, #80 ) ;
#91 = EDGE_LOOP ( 'NONE', ( #145, #33 ) ) ;
#92 = CC_DESIGN_APPROVAL ( #80, ( #72 ) ) ;
#93 = CARTESIAN_POINT ( 'NONE',  ( 17.50000000000000700, 3.877855374484676900E-015, 0.0000000000000000000 ) ) ;
#94 = FACE_OUTER_BOUND ( 'NONE', #110, .T. ) ;
#95 = AXIS2_PLACEMENT_3D ( 'NONE', #14, #77, #151 ) ;
#96 = CARTESIAN_POINT ( 'NONE',  ( 1.734723475976807100E-015, 1.734723475976807100E-015, 2.000000000000000000 ) ) ;
#97 = APPROVAL_PERSON_ORGANIZATION ( #134, #80, #118 ) ;
#98 = EDGE_CURVE ( 'NONE', #103, #78, #58, .T. ) ;
#99 = VERTEX_POINT ( 'NONE', #43 ) ;
#100 = COORDINATED_UNIVERSAL_TIME_OFFSET ( 5, 0, .BEHIND. ) ;
#101 = CC_DESIGN_PERSON_AND_ORGANIZATION_ASSIGNMENT ( #56, #37, ( #72 ) ) ;
#102 = DIRECTION ( 'NONE',  ( -1.000000000000000000, 0.0000000000000000000, 0.0000000000000000000 ) ) ;
#103 = VERTEX_POINT ( 'NONE', #93 ) ;
#104 =( NAMED_UNIT ( * ) SI_UNIT ( $, .STERADIAN. ) SOLID_ANGLE_UNIT ( ) );
#105 = LOCAL_TIME ( 12, 38, 57.00000000000000000, #143 ) ;
#106 = AXIS2_PLACEMENT_3D ( 'NONE', #138, #27, #126 ) ;
#107 = ORIENTED_EDGE ( 'NONE', *, *, #98, .T. ) ;
#108 = ORIENTED_EDGE ( 'NONE', *, *, #59, .T. ) ;
#109 = ORGANIZATION ( 'UNSPECIFIED', 'UNSPECIFIED', '' ) ;
#110 = EDGE_LOOP ( 'NONE', ( #136, #70, #108, #29 ) ) ;
#111 = CC_DESIGN_PERSON_AND_ORGANIZATION_ASSIGNMENT ( #21, #130, ( #72 ) ) ;
#112 = PRODUCT ( 'Web Model 45255_45642', 'Web Model 45255_45642', '', ( #38 ) ) ;
#113 = APPROVAL_ROLE ( '' ) ;
#114 = AXIS2_PLACEMENT_3D ( 'NONE', #132, #89, #4 ) ;
#115 = APPROVAL_DATE_TIME ( #154, #149 ) ;
#116 =( NAMED_UNIT ( * ) PLANE_ANGLE_UNIT ( ) SI_UNIT ( $, .RADIAN. ) );
#117 = UNCERTAINTY_MEASURE_WITH_UNIT (LENGTH_MEASURE( 1.000000000000000100E-005 ), #79, 'distance_accuracy_value', 'NONE');
#118 = APPROVAL_ROLE ( '' ) ;
#119 = EDGE_CURVE ( 'NONE', #99, #61, #18, .T. ) ;
#120 = CYLINDRICAL_SURFACE ( 'NONE', #160, 17.50000000000000700 ) ;
#121 = APPROVAL_PERSON_ORGANIZATION ( #155, #149, #113 ) ;
#122 = SECURITY_CLASSIFICATION ( '', '', #9 ) ;
#123 = CARTESIAN_POINT ( 'NONE',  ( 1.734723475976807100E-015, 1.734723475976807100E-015, 2.000000000000000000 ) ) ;
#124 = AXIS2_PLACEMENT_3D ( 'NONE', #67, #62, #55 ) ;
#125 = COORDINATED_UNIVERSAL_TIME_OFFSET ( 5, 0, .BEHIND. ) ;
#126 = DIRECTION ( 'NONE',  ( -1.000000000000000000, 0.0000000000000000000, 0.0000000000000000000 ) ) ;
#127 = CYLINDRICAL_SURFACE ( 'NONE', #106, 17.50000000000000700 ) ;
#128 = DATE_AND_TIME ( #167, #25 ) ;
#129 = CC_DESIGN_PERSON_AND_ORGANIZATION_ASSIGNMENT ( #162, #172, ( #122 ) ) ;
#130 = PERSON_AND_ORGANIZATION_ROLE ( 'design_supplier' ) ;
#131 = CIRCLE ( 'NONE', #166, 17.50000000000000700 ) ;
#132 = CARTESIAN_POINT ( 'NONE',  ( 1.734723475976807100E-015, 1.734723475976807100E-015, 0.0000000000000000000 ) ) ;
#133 = AXIS2_PLACEMENT_3D ( 'NONE', #42, #150, #52 ) ;
#134 = PERSON_AND_ORGANIZATION ( #82, #109 ) ;
#135 = APPROVAL_STATUS ( 'not_yet_approved' ) ;
#136 = ORIENTED_EDGE ( 'NONE', *, *, #137, .F. ) ;
#137 = EDGE_CURVE ( 'NONE', #99, #103, #165, .T. ) ;
#138 = CARTESIAN_POINT ( 'NONE',  ( 1.734723475976807100E-015, 1.734723475976807100E-015, 2.000000000000000000 ) ) ;
#139 = PERSON_AND_ORGANIZATION ( #82, #109 ) ;
#140 = CC_DESIGN_DATE_AND_TIME_ASSIGNMENT ( #17, #8, ( #122 ) ) ;
#141 = EDGE_LOOP ( 'NONE', ( #65, #173 ) ) ;
#142 = CARTESIAN_POINT ( 'NONE',  ( 1.734723475976807100E-015, 1.734723475976807100E-015, 2.000000000000000000 ) ) ;
#143 = COORDINATED_UNIVERSAL_TIME_OFFSET ( 5, 0, .BEHIND. ) ;
#144 = APPROVAL_STATUS ( 'not_yet_approved' ) ;
#145 = ORIENTED_EDGE ( 'NONE', *, *, #44, .F. ) ;
#146 = PERSON_AND_ORGANIZATION_ROLE ( 'design_owner' ) ;
#147 = APPLICATION_PROTOCOL_DEFINITION ( 'international standard', 'config_control_design', 1994, #161 ) ;
#148 = CARTESIAN_POINT ( 'NONE',  ( -17.50000000000000700, 1.734723475976807100E-015, 2.000000000000000000 ) ) ;
#149 = APPROVAL ( #144, 'UNSPECIFIED' ) ;
#150 = DIRECTION ( 'NONE',  ( 0.0000000000000000000, 0.0000000000000000000, 1.000000000000000000 ) ) ;
#151 = DIRECTION ( 'NONE',  ( 1.000000000000000000, 0.0000000000000000000, 0.0000000000000000000 ) ) ;
#152 = DIRECTION ( 'NONE',  ( 1.000000000000000000, 0.0000000000000000000, -0.0000000000000000000 ) ) ;
#153 =( GEOMETRIC_REPRESENTATION_CONTEXT ( 3 ) GLOBAL_UNCERTAINTY_ASSIGNED_CONTEXT ( ( #117 ) ) GLOBAL_UNIT_ASSIGNED_CONTEXT ( ( #79, #116, #104 ) ) REPRESENTATION_CONTEXT ( 'NONE', 'WORKASPACE' ) );
#154 = DATE_AND_TIME ( #13, #47 ) ;
#155 = PERSON_AND_ORGANIZATION ( #82, #109 ) ;
#156 = CIRCLE ( 'NONE', #95, 17.50000000000000700 ) ;
#157 = CC_DESIGN_APPROVAL ( #149, ( #122 ) ) ;
#158 = FACE_OUTER_BOUND ( 'NONE', #86, .T. ) ;
#159 = ADVANCED_BREP_SHAPE_REPRESENTATION ( 'Web Model 45255_45642', ( #35, #12 ), #153 ) ;
#160 = AXIS2_PLACEMENT_3D ( 'NONE', #123, #28, #102 ) ;
#161 = APPLICATION_CONTEXT ( 'configuration controlled 3d designs of mechanical parts and assemblies' ) ;
#162 = PERSON_AND_ORGANIZATION ( #82, #109 ) ;
#163 = CARTESIAN_POINT ( 'NONE',  ( 0.0000000000000000000, 0.0000000000000000000, 0.0000000000000000000 ) ) ;
#164 = PLANE ( 'NONE',  #124 ) ;
#165 = LINE ( 'NONE', #48, #83 ) ;
#166 = AXIS2_PLACEMENT_3D ( 'NONE', #96, #174, #45 ) ;
#167 = CALENDAR_DATE ( 2017, 10, 4 ) ;
#168 = CC_DESIGN_SECURITY_CLASSIFICATION ( #122, ( #72 ) ) ;
#169 = ADVANCED_FACE ( 'NONE', ( #158 ), #120, .T. ) ;
#170 = FACE_OUTER_BOUND ( 'NONE', #141, .T. ) ;
#171 = DATE_AND_TIME ( #30, #63 ) ;
#172 = PERSON_AND_ORGANIZATION_ROLE ( 'classification_officer' ) ;
#173 = ORIENTED_EDGE ( 'NONE', *, *, #119, .T. ) ;
#174 = DIRECTION ( 'NONE',  ( 0.0000000000000000000, 0.0000000000000000000, 1.000000000000000000 ) ) ;
#175 = APPROVAL_DATE_TIME ( #34, #40 ) ;
ENDSEC;
END-ISO-10303-21;
