ISO-10303-21;
HEADER;
FILE_DESCRIPTION (( 'STEP AP203' ),
    '1' );
FILE_NAME ('Web Model 15467_19745.step',
    '2022-03-22T19:43:45',
    ( '' ),
    ( '' ),
    'SwSTEP 2.0',
    'SolidWorks 2021',
    '' );
FILE_SCHEMA (( 'CONFIG_CONTROL_DESIGN' ));
ENDSEC;

DATA;
#1 = SHAPE_DEFINITION_REPRESENTATION ( #6, #147 ) ;
#2 = LOCAL_TIME ( 15, 43, 45.00000000000000000, #157 ) ;
#3 = PERSON_AND_ORGANIZATION_ROLE ( 'design_owner' ) ;
#4 = ADVANCED_FACE ( 'NONE', ( #168 ), #53, .F. ) ;
#5 = CC_DESIGN_DATE_AND_TIME_ASSIGNMENT ( #10, #154, ( #33 ) ) ;
#6 = PRODUCT_DEFINITION_SHAPE ( 'NONE', 'NONE',  #33 ) ;
#7 = ORIENTED_EDGE ( 'NONE', *, *, #89, .T. ) ;
#8 = CARTESIAN_POINT ( 'NONE',  ( -12.50000000000000000, 0.000000000000000000, -0.5000000000000000000 ) ) ;
#9 = AXIS2_PLACEMENT_3D ( 'NONE', #23, #111, #81 ) ;
#10 = DATE_AND_TIME ( #83, #67 ) ;
#11 = COORDINATED_UNIVERSAL_TIME_OFFSET ( 5, 0, .BEHIND. ) ;
#12 = CARTESIAN_POINT ( 'NONE',  ( -12.50000000000000000, 0.000000000000000000, 0.5000000000000000000 ) ) ;
#13 = AXIS2_PLACEMENT_3D ( 'NONE', #37, #64, #46 ) ;
#14 = ORIENTED_EDGE ( 'NONE', *, *, #89, .F. ) ;
#15 = COORDINATED_UNIVERSAL_TIME_OFFSET ( 5, 0, .BEHIND. ) ;
#16 = APPROVAL ( #97, 'UNSPECIFIED' ) ;
#17 = ORGANIZATION ( 'UNSPECIFIED', 'UNSPECIFIED', '' ) ;
#18 = ORIENTED_EDGE ( 'NONE', *, *, #105, .F. ) ;
#19 = PRODUCT ( 'Web Model 15467_19745', 'Web Model 15467_19745', '', ( #145 ) ) ;
#20 = VERTEX_POINT ( 'NONE', #43 ) ;
#21 = CC_DESIGN_APPROVAL ( #16, ( #33 ) ) ;
#22 = DIRECTION ( 'NONE',  ( 1.000000000000000000, 0.000000000000000000, 0.000000000000000000 ) ) ;
#23 = CARTESIAN_POINT ( 'NONE',  ( 0.000000000000000000, 0.000000000000000000, 0.5000000000000000000 ) ) ;
#24 = CALENDAR_DATE ( 2022, 22, 3 ) ;
#25 = VECTOR ( 'NONE', #36, 1000.000000000000000 ) ;
#26 = VERTEX_POINT ( 'NONE', #93 ) ;
#27 = DATE_AND_TIME ( #94, #2 ) ;
#28 = CC_DESIGN_PERSON_AND_ORGANIZATION_ASSIGNMENT ( #102, #160, ( #108 ) ) ;
#29 = SECURITY_CLASSIFICATION ( '', '', #74 ) ;
#30 = CYLINDRICAL_SURFACE ( 'NONE', #156, 12.50000000000000000 ) ;
#31 = ADVANCED_FACE ( 'NONE', ( #92 ), #30, .T. ) ;
#32 = PLANE ( 'NONE',  #76 ) ;
#33 = PRODUCT_DEFINITION ( 'UNKNOWN', '', #108, #148 ) ;
#34 = DIRECTION ( 'NONE',  ( 1.000000000000000000, 0.000000000000000000, 0.000000000000000000 ) ) ;
#35 = APPROVAL_ROLE ( '' ) ;
#36 = DIRECTION ( 'NONE',  ( -0.000000000000000000, -0.000000000000000000, -1.000000000000000000 ) ) ;
#37 = CARTESIAN_POINT ( 'NONE',  ( 0.000000000000000000, 0.000000000000000000, -0.5000000000000000000 ) ) ;
#38 = APPLICATION_PROTOCOL_DEFINITION ( 'international standard', 'config_control_design', 1994, #120 ) ;
#39 = PERSON_AND_ORGANIZATION_ROLE ( 'design_supplier' ) ;
#40 = PERSON_AND_ORGANIZATION_ROLE ( 'creator' ) ;
#41 = APPROVAL_PERSON_ORGANIZATION ( #116, #126, #52 ) ;
#42 = PRODUCT_RELATED_PRODUCT_CATEGORY ( 'detail', '', ( #19 ) ) ;
#43 = CARTESIAN_POINT ( 'NONE',  ( 12.50000000000000000, 1.530808498934191521E-15, 0.5000000000000000000 ) ) ;
#44 = DIRECTION ( 'NONE',  ( 1.000000000000000000, 0.000000000000000000, -0.000000000000000000 ) ) ;
#45 = DIRECTION ( 'NONE',  ( 0.000000000000000000, 0.000000000000000000, 1.000000000000000000 ) ) ;
#46 = DIRECTION ( 'NONE',  ( 1.000000000000000000, 0.000000000000000000, 0.000000000000000000 ) ) ;
#47 = CARTESIAN_POINT ( 'NONE',  ( 0.000000000000000000, 0.000000000000000000, 0.000000000000000000 ) ) ;
#48 = CARTESIAN_POINT ( 'NONE',  ( 12.50000000000000000, 1.530808498934191521E-15, 0.5000000000000000000 ) ) ;
#49 = CARTESIAN_POINT ( 'NONE',  ( 0.000000000000000000, 0.000000000000000000, 0.5000000000000000000 ) ) ;
#50 = DATE_AND_TIME ( #24, #137 ) ;
#51 = DIRECTION ( 'NONE',  ( 1.000000000000000000, 0.000000000000000000, 0.000000000000000000 ) ) ;
#52 = APPROVAL_ROLE ( '' ) ;
#53 = PLANE ( 'NONE',  #78 ) ;
#54 = CC_DESIGN_PERSON_AND_ORGANIZATION_ASSIGNMENT ( #158, #135, ( #29 ) ) ;
#55 =( NAMED_UNIT ( * ) SI_UNIT ( $, .STERADIAN. ) SOLID_ANGLE_UNIT ( ) );
#56 = LOCAL_TIME ( 15, 43, 45.00000000000000000, #11 ) ;
#57 = DIRECTION ( 'NONE',  ( 0.000000000000000000, 0.000000000000000000, 1.000000000000000000 ) ) ;
#58 = APPLICATION_PROTOCOL_DEFINITION ( 'international standard', 'config_control_design', 1994, #134 ) ;
#59 = VECTOR ( 'NONE', #72, 1000.000000000000000 ) ;
#60 = ADVANCED_FACE ( 'NONE', ( #129 ), #32, .T. ) ;
#61 = EDGE_CURVE ( 'NONE', #121, #165, #153, .T. ) ;
#62 = APPROVAL_STATUS ( 'not_yet_approved' ) ;
#63 =( GEOMETRIC_REPRESENTATION_CONTEXT ( 3 ) GLOBAL_UNCERTAINTY_ASSIGNED_CONTEXT ( ( #96 ) ) GLOBAL_UNIT_ASSIGNED_CONTEXT ( ( #171, #95, #55 ) ) REPRESENTATION_CONTEXT ( 'NONE', 'WORKASPACE' ) );
#64 = DIRECTION ( 'NONE',  ( 0.000000000000000000, 0.000000000000000000, 1.000000000000000000 ) ) ;
#65 = EDGE_LOOP ( 'NONE', ( #167, #18, #139, #79 ) ) ;
#66 = EDGE_LOOP ( 'NONE', ( #14, #122, #75, #77 ) ) ;
#67 = LOCAL_TIME ( 15, 43, 45.00000000000000000, #151 ) ;
#68 = CC_DESIGN_PERSON_AND_ORGANIZATION_ASSIGNMENT ( #99, #39, ( #108 ) ) ;
#69 = DIRECTION ( 'NONE',  ( 0.000000000000000000, 0.000000000000000000, 1.000000000000000000 ) ) ;
#70 = CIRCLE ( 'NONE', #98, 12.50000000000000000 ) ;
#71 = CARTESIAN_POINT ( 'NONE',  ( 0.000000000000000000, 0.000000000000000000, -0.5000000000000000000 ) ) ;
#72 = DIRECTION ( 'NONE',  ( -0.000000000000000000, -0.000000000000000000, -1.000000000000000000 ) ) ;
#73 = PERSON_AND_ORGANIZATION ( #172, #17 ) ;
#74 = SECURITY_CLASSIFICATION_LEVEL ( 'unclassified' ) ;
#75 = ORIENTED_EDGE ( 'NONE', *, *, #90, .T. ) ;
#76 = AXIS2_PLACEMENT_3D ( 'NONE', #128, #57, #80 ) ;
#77 = ORIENTED_EDGE ( 'NONE', *, *, #61, .F. ) ;
#78 = AXIS2_PLACEMENT_3D ( 'NONE', #119, #45, #44 ) ;
#79 = ORIENTED_EDGE ( 'NONE', *, *, #133, .T. ) ;
#80 = DIRECTION ( 'NONE',  ( 1.000000000000000000, 0.000000000000000000, -0.000000000000000000 ) ) ;
#81 = DIRECTION ( 'NONE',  ( -1.000000000000000000, 0.000000000000000000, 0.000000000000000000 ) ) ;
#82 = CIRCLE ( 'NONE', #13, 12.50000000000000000 ) ;
#83 = CALENDAR_DATE ( 2022, 22, 3 ) ;
#84 = DIRECTION ( 'NONE',  ( -1.000000000000000000, 0.000000000000000000, 0.000000000000000000 ) ) ;
#85 = PERSON_AND_ORGANIZATION ( #172, #17 ) ;
#86 = APPROVAL ( #130, 'UNSPECIFIED' ) ;
#87 = COORDINATED_UNIVERSAL_TIME_OFFSET ( 5, 0, .BEHIND. ) ;
#88 = AXIS2_PLACEMENT_3D ( 'NONE', #155, #127, #22 ) ;
#89 = EDGE_CURVE ( 'NONE', #20, #121, #169, .T. ) ;
#90 = EDGE_CURVE ( 'NONE', #26, #165, #82, .T. ) ;
#91 = CC_DESIGN_APPROVAL ( #86, ( #108 ) ) ;
#92 = FACE_OUTER_BOUND ( 'NONE', #65, .T. ) ;
#93 = CARTESIAN_POINT ( 'NONE',  ( 12.50000000000000000, 1.530808498934191521E-15, -0.5000000000000000000 ) ) ;
#94 = CALENDAR_DATE ( 2022, 22, 3 ) ;
#95 =( NAMED_UNIT ( * ) PLANE_ANGLE_UNIT ( ) SI_UNIT ( $, .RADIAN. ) );
#96 = UNCERTAINTY_MEASURE_WITH_UNIT (LENGTH_MEASURE( 1.000000000000000082E-05 ), #171, 'distance_accuracy_value', 'NONE');
#97 = APPROVAL_STATUS ( 'not_yet_approved' ) ;
#98 = AXIS2_PLACEMENT_3D ( 'NONE', #71, #69, #51 ) ;
#99 = PERSON_AND_ORGANIZATION ( #172, #17 ) ;
#100 = CC_DESIGN_PERSON_AND_ORGANIZATION_ASSIGNMENT ( #173, #3, ( #19 ) ) ;
#101 = DIRECTION ( 'NONE',  ( 0.000000000000000000, 0.000000000000000000, 1.000000000000000000 ) ) ;
#102 = PERSON_AND_ORGANIZATION ( #172, #17 ) ;
#103 = CC_DESIGN_SECURITY_CLASSIFICATION ( #29, ( #108 ) ) ;
#104 = CALENDAR_DATE ( 2022, 22, 3 ) ;
#105 = EDGE_CURVE ( 'NONE', #121, #20, #124, .T. ) ;
#106 = DATE_TIME_ROLE ( 'classification_date' ) ;
#107 = EDGE_LOOP ( 'NONE', ( #163, #123 ) ) ;
#108 = PRODUCT_DEFINITION_FORMATION_WITH_SPECIFIED_SOURCE ( 'ANY', '', #19, .NOT_KNOWN. ) ;
#109 = DIRECTION ( 'NONE',  ( 0.000000000000000000, 0.000000000000000000, 1.000000000000000000 ) ) ;
#110 = CYLINDRICAL_SURFACE ( 'NONE', #9, 12.50000000000000000 ) ;
#111 = DIRECTION ( 'NONE',  ( -0.000000000000000000, -0.000000000000000000, -1.000000000000000000 ) ) ;
#112 = APPROVAL_PERSON_ORGANIZATION ( #73, #86, #35 ) ;
#113 = APPROVAL_DATE_TIME ( #131, #126 ) ;
#114 = LINE ( 'NONE', #48, #59 ) ;
#115 = CC_DESIGN_PERSON_AND_ORGANIZATION_ASSIGNMENT ( #132, #40, ( #33 ) ) ;
#116 = PERSON_AND_ORGANIZATION ( #172, #17 ) ;
#117 = AXIS2_PLACEMENT_3D ( 'NONE', #49, #101, #142 ) ;
#118 = MANIFOLD_SOLID_BREP ( 'Boss-Extrude1', #175 ) ;
#119 = CARTESIAN_POINT ( 'NONE',  ( 0.000000000000000000, 0.000000000000000000, -0.5000000000000000000 ) ) ;
#120 = APPLICATION_CONTEXT ( 'configuration controlled 3d designs of mechanical parts and assemblies' ) ;
#121 = VERTEX_POINT ( 'NONE', #143 ) ;
#122 = ORIENTED_EDGE ( 'NONE', *, *, #159, .T. ) ;
#123 = ORIENTED_EDGE ( 'NONE', *, *, #90, .F. ) ;
#124 = CIRCLE ( 'NONE', #88, 12.50000000000000000 ) ;
#125 = ADVANCED_FACE ( 'NONE', ( #146 ), #110, .T. ) ;
#126 = APPROVAL ( #62, 'UNSPECIFIED' ) ;
#127 = DIRECTION ( 'NONE',  ( 0.000000000000000000, 0.000000000000000000, 1.000000000000000000 ) ) ;
#128 = CARTESIAN_POINT ( 'NONE',  ( 0.000000000000000000, 0.000000000000000000, 0.5000000000000000000 ) ) ;
#129 = FACE_OUTER_BOUND ( 'NONE', #138, .T. ) ;
#130 = APPROVAL_STATUS ( 'not_yet_approved' ) ;
#131 = DATE_AND_TIME ( #166, #56 ) ;
#132 = PERSON_AND_ORGANIZATION ( #172, #17 ) ;
#133 = EDGE_CURVE ( 'NONE', #165, #26, #70, .T. ) ;
#134 = APPLICATION_CONTEXT ( 'configuration controlled 3d designs of mechanical parts and assemblies' ) ;
#135 = PERSON_AND_ORGANIZATION_ROLE ( 'classification_officer' ) ;
#136 = DIRECTION ( 'NONE',  ( -0.000000000000000000, -0.000000000000000000, -1.000000000000000000 ) ) ;
#137 = LOCAL_TIME ( 15, 43, 45.00000000000000000, #87 ) ;
#138 = EDGE_LOOP ( 'NONE', ( #140, #7 ) ) ;
#139 = ORIENTED_EDGE ( 'NONE', *, *, #61, .T. ) ;
#140 = ORIENTED_EDGE ( 'NONE', *, *, #105, .T. ) ;
#141 = CC_DESIGN_APPROVAL ( #126, ( #29 ) ) ;
#142 = DIRECTION ( 'NONE',  ( 1.000000000000000000, 0.000000000000000000, 0.000000000000000000 ) ) ;
#143 = CARTESIAN_POINT ( 'NONE',  ( -12.50000000000000000, 0.000000000000000000, 0.5000000000000000000 ) ) ;
#144 = LOCAL_TIME ( 15, 43, 45.00000000000000000, #15 ) ;
#145 = MECHANICAL_CONTEXT ( 'NONE', #134, 'mechanical' ) ;
#146 = FACE_OUTER_BOUND ( 'NONE', #66, .T. ) ;
#147 = ADVANCED_BREP_SHAPE_REPRESENTATION ( 'Web Model 15467_19745', ( #118, #150 ), #63 ) ;
#148 = DESIGN_CONTEXT ( 'detailed design', #120, 'design' ) ;
#149 = APPROVAL_PERSON_ORGANIZATION ( #85, #16, #170 ) ;
#150 = AXIS2_PLACEMENT_3D ( 'NONE', #47, #109, #34 ) ;
#151 = COORDINATED_UNIVERSAL_TIME_OFFSET ( 5, 0, .BEHIND. ) ;
#152 = CARTESIAN_POINT ( 'NONE',  ( 0.000000000000000000, 0.000000000000000000, 0.5000000000000000000 ) ) ;
#153 = LINE ( 'NONE', #12, #25 ) ;
#154 = DATE_TIME_ROLE ( 'creation_date' ) ;
#155 = CARTESIAN_POINT ( 'NONE',  ( 0.000000000000000000, 0.000000000000000000, 0.5000000000000000000 ) ) ;
#156 = AXIS2_PLACEMENT_3D ( 'NONE', #152, #136, #84 ) ;
#157 = COORDINATED_UNIVERSAL_TIME_OFFSET ( 5, 0, .BEHIND. ) ;
#158 = PERSON_AND_ORGANIZATION ( #172, #17 ) ;
#159 = EDGE_CURVE ( 'NONE', #20, #26, #114, .T. ) ;
#160 = PERSON_AND_ORGANIZATION_ROLE ( 'creator' ) ;
#161 = CC_DESIGN_DATE_AND_TIME_ASSIGNMENT ( #162, #106, ( #29 ) ) ;
#162 = DATE_AND_TIME ( #104, #144 ) ;
#163 = ORIENTED_EDGE ( 'NONE', *, *, #133, .F. ) ;
#164 = APPROVAL_DATE_TIME ( #27, #16 ) ;
#165 = VERTEX_POINT ( 'NONE', #8 ) ;
#166 = CALENDAR_DATE ( 2022, 22, 3 ) ;
#167 = ORIENTED_EDGE ( 'NONE', *, *, #159, .F. ) ;
#168 = FACE_OUTER_BOUND ( 'NONE', #107, .T. ) ;
#169 = CIRCLE ( 'NONE', #117, 12.50000000000000000 ) ;
#170 = APPROVAL_ROLE ( '' ) ;
#171 =( LENGTH_UNIT ( ) NAMED_UNIT ( * ) SI_UNIT ( .MILLI., .METRE. ) );
#172 = PERSON ( 'UNSPECIFIED', 'UNSPECIFIED', 'UNSPECIFIED', ('UNSPECIFIED'), ('UNSPECIFIED'), ('UNSPECIFIED') ) ;
#173 = PERSON_AND_ORGANIZATION ( #172, #17 ) ;
#174 = APPROVAL_DATE_TIME ( #50, #86 ) ;
#175 = CLOSED_SHELL ( 'NONE', ( #125, #31, #60, #4 ) ) ;
ENDSEC;
END-ISO-10303-21;
