ISO-10303-21;
HEADER;
FILE_DESCRIPTION (( 'STEP AP203' ),
    '1' );
FILE_NAME ('20109-E0W.STEP',
    '2009-09-14T20:26:01',
    ( 'Admin' ),
    ( 'Thorlabs, Inc.' ),
    'SwSTEP 2.0',
    'SolidWorks 2007',
    '' );
FILE_SCHEMA (( 'CONFIG_CONTROL_DESIGN' ));
ENDSEC;

DATA;
#1 = ORIENTED_EDGE ( 'NONE', *, *, #8, .T. ) ;
#2 = ORIENTED_EDGE ( 'NONE', *, *, #57, .F. ) ;
#3 = ORIENTED_EDGE ( 'NONE', *, *, #10, .T. ) ;
#4 = EDGE_CURVE ( 'NONE', #9, #23, #147, .T. ) ;
#5 = EDGE_LOOP ( 'NONE', ( #12, #16, #3, #2 ) ) ;
#6 = ORIENTED_EDGE ( 'NONE', *, *, #51, .F. ) ;
#7 = ADVANCED_FACE ( 'NONE', ( #98 ), #110, .T. ) ;
#8 = EDGE_CURVE ( 'NONE', #24, #23, #125, .T. ) ;
#9 = VERTEX_POINT ( 'NONE', #91 ) ;
#10 = EDGE_CURVE ( 'NONE', #23, #21, #102, .T. ) ;
#11 = ADVANCED_FACE ( 'NONE', ( #92 ), #79, .T. ) ;
#12 = ORIENTED_EDGE ( 'NONE', *, *, #15, .F. ) ;
#13 = ORIENTED_EDGE ( 'NONE', *, *, #8, .F. ) ;
#14 = EDGE_LOOP ( 'NONE', ( #13, #25, #54 ) ) ;
#15 = EDGE_CURVE ( 'NONE', #9, #27, #142, .T. ) ;
#16 = ORIENTED_EDGE ( 'NONE', *, *, #4, .T. ) ;
#17 = ORIENTED_EDGE ( 'NONE', *, *, #4, .F. ) ;
#18 = ORIENTED_EDGE ( 'NONE', *, *, #15, .T. ) ;
#19 = ORIENTED_EDGE ( 'NONE', *, *, #10, .F. ) ;
#20 = ADVANCED_FACE ( 'NONE', ( #145 ), #143, .T. ) ;
#21 = VERTEX_POINT ( 'NONE', #113 ) ;
#22 = CLOSED_SHELL ( 'NONE', ( #11, #7, #52, #58, #20 ) ) ;
#23 = VERTEX_POINT ( 'NONE', #131 ) ;
#24 = VERTEX_POINT ( 'NONE', #130 ) ;
#25 = ORIENTED_EDGE ( 'NONE', *, *, #51, .T. ) ;
#26 = EDGE_CURVE ( 'NONE', #23, #9, #109, .T. ) ;
#27 = VERTEX_POINT ( 'NONE', #104 ) ;
#28 = ORIENTED_EDGE ( 'NONE', *, *, #29, .F. ) ;
#29 = EDGE_CURVE ( 'NONE', #21, #27, #68, .T. ) ;
#30 = EDGE_LOOP ( 'NONE', ( #31, #18, #28, #19 ) ) ;
#31 = ORIENTED_EDGE ( 'NONE', *, *, #26, .T. ) ;
#32 = DATE_TIME_ROLE ( 'creation_date' ) ;
#33 = LOCAL_TIME ( 16, 26, 1.000000000000000000, #42 ) ;
#34 = MANIFOLD_SOLID_BREP ( 'NONE', #22 ) ;
#35 = APPROVAL ( #36, 'UNSPECIFIED' ) ;
#36 = APPROVAL_STATUS ( 'not_yet_approved' ) ;
#37 = DATE_AND_TIME ( #38, #33 ) ;
#38 = CALENDAR_DATE ( 2009, 14, 9 ) ;
#39 = PRODUCT_DEFINITION_FORMATION_WITH_SPECIFIED_SOURCE ( 'ANY', '', #172, .NOT_KNOWN. ) ;
#40 = CC_DESIGN_DATE_AND_TIME_ASSIGNMENT ( #37, #32, ( #164 ) ) ;
#41 = PERSON_AND_ORGANIZATION ( #78, #77 ) ;
#42 = COORDINATED_UNIVERSAL_TIME_OFFSET ( 5, 0, .BEHIND. ) ;
#43 = APPROVAL_PERSON_ORGANIZATION ( #41, #35, #44 ) ;
#44 = APPROVAL_ROLE ( '' ) ;
#45 = APPROVAL_DATE_TIME ( #50, #35 ) ;
#46 = CC_DESIGN_APPROVAL ( #35, ( #39 ) ) ;
#47 = COORDINATED_UNIVERSAL_TIME_OFFSET ( 5, 0, .BEHIND. ) ;
#48 = LOCAL_TIME ( 16, 26, 1.000000000000000000, #47 ) ;
#49 = CALENDAR_DATE ( 2009, 14, 9 ) ;
#50 = DATE_AND_TIME ( #49, #48 ) ;
#51 = EDGE_CURVE ( 'NONE', #24, #9, #127, .T. ) ;
#52 = ADVANCED_FACE ( 'NONE', ( #119 ), #97, .T. ) ;
#53 = ORIENTED_EDGE ( 'NONE', *, *, #29, .T. ) ;
#54 = ORIENTED_EDGE ( 'NONE', *, *, #26, .F. ) ;
#55 = EDGE_LOOP ( 'NONE', ( #53, #56 ) ) ;
#56 = ORIENTED_EDGE ( 'NONE', *, *, #57, .T. ) ;
#57 = EDGE_CURVE ( 'NONE', #27, #21, #74, .T. ) ;
#58 = ADVANCED_FACE ( 'NONE', ( #75 ), #89, .T. ) ;
#59 = EDGE_LOOP ( 'NONE', ( #6, #1, #17 ) ) ;
#60 = PERSON_AND_ORGANIZATION ( #78, #77 ) ;
#61 = CC_DESIGN_PERSON_AND_ORGANIZATION_ASSIGNMENT ( #62, #63, ( #39 ) ) ;
#62 = PERSON_AND_ORGANIZATION ( #78, #77 ) ;
#63 = PERSON_AND_ORGANIZATION_ROLE ( 'creator' ) ;
#64 = CC_DESIGN_PERSON_AND_ORGANIZATION_ASSIGNMENT ( #60, #65, ( #39 ) ) ;
#65 = PERSON_AND_ORGANIZATION_ROLE ( 'design_supplier' ) ;
#66 = CARTESIAN_POINT ( 'NONE',  ( 0.0000000000000000000, 3.147238329323521900E-016, -2.000000000000004000 ) ) ;
#67 = AXIS2_PLACEMENT_3D ( 'NONE', #66, #129, #128 ) ;
#68 = CIRCLE ( 'NONE', #67, 12.69999999999999900 ) ;
#69 = CARTESIAN_POINT ( 'NONE',  ( 0.0000000000000000000, 7.273182056621861900E-014, -599.3500000000000200 ) ) ;
#70 = DIRECTION ( 'NONE',  ( 0.0000000000000000000, 1.000000000000000000, 3.073328992872296400E-016 ) ) ;
#71 = DIRECTION ( 'NONE',  ( 0.0000000000000000000, 3.061515884555943100E-016, -1.000000000000000000 ) ) ;
#72 = CARTESIAN_POINT ( 'NONE',  ( 0.0000000000000000000, 3.147238329323521900E-016, -2.000000000000004000 ) ) ;
#73 = AXIS2_PLACEMENT_3D ( 'NONE', #72, #71, #70 ) ;
#74 = CIRCLE ( 'NONE', #73, 12.69999999999999900 ) ;
#75 = FACE_OUTER_BOUND ( 'NONE', #59, .T. ) ;
#76 = PERSON_AND_ORGANIZATION ( #78, #77 ) ;
#77 = ORGANIZATION ( 'UNSPECIFIED', 'UNSPECIFIED', '' ) ;
#78 = PERSON ( 'UNSPECIFIED', 'UNSPECIFIED', 'UNSPECIFIED', ('UNSPECIFIED'), ('UNSPECIFIED'), ('UNSPECIFIED') ) ;
#79 = CYLINDRICAL_SURFACE ( 'NONE', #80, 12.69999999999999900 ) ;
#80 = AXIS2_PLACEMENT_3D ( 'NONE', #117, #116, #115 ) ;
#81 = DIRECTION ( 'NONE',  ( 0.0000000000000000000, 0.0000000000000000000, 1.000000000000000000 ) ) ;
#82 = DIRECTION ( 'NONE',  ( -1.000000000000000000, 0.0000000000000000000, 0.0000000000000000000 ) ) ;
#83 = CARTESIAN_POINT ( 'NONE',  ( 0.0000000000000000000, 7.273182056621861900E-014, -599.3500000000000200 ) ) ;
#84 = AXIS2_PLACEMENT_3D ( 'NONE', #83, #82, #81 ) ;
#85 =( LENGTH_UNIT ( ) NAMED_UNIT ( * ) SI_UNIT ( .MILLI., .METRE. ) );
#86 = DIRECTION ( 'NONE',  ( 0.0000000000000000000, 1.000000000000000000, 3.692435435686892600E-016 ) ) ;
#87 = DIRECTION ( 'NONE',  ( 1.000000000000000000, 0.0000000000000000000, 0.0000000000000000000 ) ) ;
#88 = AXIS2_PLACEMENT_3D ( 'NONE', #69, #87, #86 ) ;
#89 = SPHERICAL_SURFACE ( 'NONE', #88, 601.3500000000000200 ) ;
#90 = CARTESIAN_POINT ( 'NONE',  ( 0.0000000000000000000, -8.688209952082305900E-016, 1.865878449663012500 ) ) ;
#91 = CARTESIAN_POINT ( 'NONE',  ( 1.555250069354499300E-015, -12.70000000000076700, 1.865878449663012500 ) ) ;
#92 = FACE_OUTER_BOUND ( 'NONE', #30, .T. ) ;
#93 = DIRECTION ( 'NONE',  ( 0.0000000000000000000, 1.000000000000000000, 3.061515884555943100E-016 ) ) ;
#94 = DIRECTION ( 'NONE',  ( 0.0000000000000000000, 3.061515884555943100E-016, -1.000000000000000000 ) ) ;
#95 = CARTESIAN_POINT ( 'NONE',  ( 0.0000000000000000000, 3.147238329323515500E-016, -2.000000000000001800 ) ) ;
#96 = AXIS2_PLACEMENT_3D ( 'NONE', #95, #94, #93 ) ;
#97 = PLANE ( 'NONE',  #96 ) ;
#98 = FACE_OUTER_BOUND ( 'NONE', #14, .T. ) ;
#99 = DIRECTION ( 'NONE',  ( 0.0000000000000000000, 3.061515884555943100E-016, -1.000000000000000000 ) ) ;
#100 = VECTOR ( 'NONE', #99, 1000.000000000000000 ) ;
#101 = CARTESIAN_POINT ( 'NONE',  ( 0.0000000000000000000, 12.69999999999999900, -1.999999999999996200 ) ) ;
#102 = LINE ( 'NONE', #101, #100 ) ;
#103 = AXIS2_PLACEMENT_3D ( 'NONE', #146, #124, #170 ) ;
#104 = CARTESIAN_POINT ( 'NONE',  ( 1.555250069354419100E-015, -12.69999999999999900, -2.000000000000008000 ) ) ;
#105 = DIRECTION ( 'NONE',  ( 0.0000000000000000000, 1.000000000000000000, 3.073328992872296400E-016 ) ) ;
#106 = DIRECTION ( 'NONE',  ( 0.0000000000000000000, 3.061515884555943100E-016, -1.000000000000000000 ) ) ;
#107 = CARTESIAN_POINT ( 'NONE',  ( 0.0000000000000000000, -8.688209952082305900E-016, 1.865878449663012500 ) ) ;
#108 = AXIS2_PLACEMENT_3D ( 'NONE', #107, #106, #105 ) ;
#109 = CIRCLE ( 'NONE', #108, 12.69999999999999900 ) ;
#110 = SPHERICAL_SURFACE ( 'NONE', #103, 601.3500000000000200 ) ;
#111 = DIRECTION ( 'NONE',  ( 0.0000000000000000000, 3.061515884555943100E-016, -1.000000000000000000 ) ) ;
#112 = CARTESIAN_POINT ( 'NONE',  ( 0.0000000000000000000, 3.147238329323510100E-016, -2.000000000000000000 ) ) ;
#113 = CARTESIAN_POINT ( 'NONE',  ( 0.0000000000000000000, 12.69999999999999900, -2.000000000000000000 ) ) ;
#114 = AXIS2_PLACEMENT_3D ( 'NONE', #90, #126, #118 ) ;
#115 = DIRECTION ( 'NONE',  ( 0.0000000000000000000, 1.000000000000000000, 3.073328992872296400E-016 ) ) ;
#116 = DIRECTION ( 'NONE',  ( 0.0000000000000000000, 3.061515884555943100E-016, -1.000000000000000000 ) ) ;
#117 = CARTESIAN_POINT ( 'NONE',  ( 0.0000000000000000000, 3.147238329323510100E-016, -2.000000000000000000 ) ) ;
#118 = DIRECTION ( 'NONE',  ( 0.0000000000000000000, 1.000000000000000000, 3.073328992872296400E-016 ) ) ;
#119 = FACE_OUTER_BOUND ( 'NONE', #55, .T. ) ;
#120 = DIRECTION ( 'NONE',  ( -1.224606353822377000E-016, 1.000000000000000000, 0.0000000000000000000 ) ) ;
#121 = DIRECTION ( 'NONE',  ( 1.000000000000000000, 1.224606353822377300E-016, 3.749151804555343600E-032 ) ) ;
#122 = CARTESIAN_POINT ( 'NONE',  ( 0.0000000000000000000, 7.273182056621861900E-014, -599.3500000000000200 ) ) ;
#123 = AXIS2_PLACEMENT_3D ( 'NONE', #122, #121, #120 ) ;
#124 = DIRECTION ( 'NONE',  ( 1.000000000000000000, 0.0000000000000000000, 0.0000000000000000000 ) ) ;
#125 = CIRCLE ( 'NONE', #84, 601.3500000000000200 ) ;
#126 = DIRECTION ( 'NONE',  ( 0.0000000000000000000, 3.061515884555943100E-016, -1.000000000000000000 ) ) ;
#127 = CIRCLE ( 'NONE', #123, 601.3500000000000200 ) ;
#128 = DIRECTION ( 'NONE',  ( 0.0000000000000000000, 1.000000000000000000, 3.073328992872296400E-016 ) ) ;
#129 = DIRECTION ( 'NONE',  ( 0.0000000000000000000, 3.061515884555943100E-016, -1.000000000000000000 ) ) ;
#130 = CARTESIAN_POINT ( 'NONE',  ( 0.0000000000000000000, -7.455158560799869600E-014, 2.000000000000001800 ) ) ;
#131 = CARTESIAN_POINT ( 'NONE',  ( 0.0000000000000000000, 12.70000000000065300, 1.865878449663016500 ) ) ;
#132 = DIRECTION ( 'NONE',  ( 0.0000000000000000000, 1.000000000000000000, 3.073328992872296400E-016 ) ) ;
#133 = UNCERTAINTY_MEASURE_WITH_UNIT (LENGTH_MEASURE( 1.000000000000000100E-005 ), #85, 'distance_accuracy_value', 'NONE');
#134 =( NAMED_UNIT ( * ) SI_UNIT ( $, .STERADIAN. ) SOLID_ANGLE_UNIT ( ) );
#135 =( NAMED_UNIT ( * ) PLANE_ANGLE_UNIT ( ) SI_UNIT ( $, .RADIAN. ) );
#136 = DIRECTION ( 'NONE',  ( 1.000000000000000000, 0.0000000000000000000, 0.0000000000000000000 ) ) ;
#137 = DIRECTION ( 'NONE',  ( 0.0000000000000000000, 0.0000000000000000000, 1.000000000000000000 ) ) ;
#138 = AXIS2_PLACEMENT_3D ( 'NONE', #171, #137, #136 ) ;
#139 = DIRECTION ( 'NONE',  ( 0.0000000000000000000, 3.061515884555943100E-016, -1.000000000000000000 ) ) ;
#140 = VECTOR ( 'NONE', #139, 1000.000000000000000 ) ;
#141 = CARTESIAN_POINT ( 'NONE',  ( 1.555250069354419100E-015, -12.69999999999999900, -2.000000000000004000 ) ) ;
#142 = LINE ( 'NONE', #141, #140 ) ;
#143 = CYLINDRICAL_SURFACE ( 'NONE', #144, 12.69999999999999900 ) ;
#144 = AXIS2_PLACEMENT_3D ( 'NONE', #112, #111, #132 ) ;
#145 = FACE_OUTER_BOUND ( 'NONE', #5, .T. ) ;
#146 = CARTESIAN_POINT ( 'NONE',  ( 0.0000000000000000000, 7.273182056621861900E-014, -599.3500000000000200 ) ) ;
#147 = CIRCLE ( 'NONE', #114, 12.69999999999999900 ) ;
#148 = ADVANCED_BREP_SHAPE_REPRESENTATION ( '20109-E0W', ( #34, #138 ), #149 ) ;
#149 =( GEOMETRIC_REPRESENTATION_CONTEXT ( 3 ) GLOBAL_UNCERTAINTY_ASSIGNED_CONTEXT ( ( #133 ) ) GLOBAL_UNIT_ASSIGNED_CONTEXT ( ( #85, #135, #134 ) ) REPRESENTATION_CONTEXT ( 'NONE', 'WORKASPACE' ) );
#150 = CC_DESIGN_PERSON_AND_ORGANIZATION_ASSIGNMENT ( #152, #151, ( #164 ) ) ;
#151 = PERSON_AND_ORGANIZATION_ROLE ( 'creator' ) ;
#152 = PERSON_AND_ORGANIZATION ( #78, #77 ) ;
#153 = CC_DESIGN_APPROVAL ( #161, ( #164 ) ) ;
#154 = APPROVAL_DATE_TIME ( #155, #161 ) ;
#155 = DATE_AND_TIME ( #156, #157 ) ;
#156 = CALENDAR_DATE ( 2009, 14, 9 ) ;
#157 = LOCAL_TIME ( 16, 26, 1.000000000000000000, #158 ) ;
#158 = COORDINATED_UNIVERSAL_TIME_OFFSET ( 5, 0, .BEHIND. ) ;
#159 = APPROVAL_PERSON_ORGANIZATION ( #163, #161, #160 ) ;
#160 = APPROVAL_ROLE ( '' ) ;
#161 = APPROVAL ( #162, 'UNSPECIFIED' ) ;
#162 = APPROVAL_STATUS ( 'not_yet_approved' ) ;
#163 = PERSON_AND_ORGANIZATION ( #78, #77 ) ;
#164 = PRODUCT_DEFINITION ( 'UNKNOWN', '', #39, #165 ) ;
#165 = DESIGN_CONTEXT ( 'detailed design', #167, 'design' ) ;
#166 = APPLICATION_PROTOCOL_DEFINITION ( 'international standard', 'config_control_design', 1994, #167 ) ;
#167 = APPLICATION_CONTEXT ( 'configuration controlled 3d designs of mechanical parts and assemblies' ) ;
#168 = CC_DESIGN_PERSON_AND_ORGANIZATION_ASSIGNMENT ( #76, #169, ( #172 ) ) ;
#169 = PERSON_AND_ORGANIZATION_ROLE ( 'design_owner' ) ;
#170 = DIRECTION ( 'NONE',  ( 0.0000000000000000000, 1.000000000000000000, 3.692435435686892600E-016 ) ) ;
#171 = CARTESIAN_POINT ( 'NONE',  ( 0.0000000000000000000, 0.0000000000000000000, 0.0000000000000000000 ) ) ;
#172 = PRODUCT ( '20109-E0W', '20109-E0W', '', ( #173 ) ) ;
#173 = MECHANICAL_CONTEXT ( 'NONE', #175, 'mechanical' ) ;
#174 = APPLICATION_PROTOCOL_DEFINITION ( 'international standard', 'config_control_design', 1994, #175 ) ;
#175 = APPLICATION_CONTEXT ( 'configuration controlled 3d designs of mechanical parts and assemblies' ) ;
#176 = PERSON_AND_ORGANIZATION_ROLE ( 'classification_officer' ) ;
#177 = CC_DESIGN_SECURITY_CLASSIFICATION ( #198, ( #39 ) ) ;
#178 = COORDINATED_UNIVERSAL_TIME_OFFSET ( 5, 0, .BEHIND. ) ;
#179 = CALENDAR_DATE ( 2009, 14, 9 ) ;
#180 = PRODUCT_RELATED_PRODUCT_CATEGORY ( 'detail', '', ( #172 ) ) ;
#181 = SECURITY_CLASSIFICATION_LEVEL ( 'unclassified' ) ;
#182 = PERSON_AND_ORGANIZATION ( #78, #77 ) ;
#183 = SHAPE_DEFINITION_REPRESENTATION ( #184, #148 ) ;
#184 = PRODUCT_DEFINITION_SHAPE ( 'NONE', 'NONE',  #164 ) ;
#185 = APPROVAL ( #186, 'UNSPECIFIED' ) ;
#186 = APPROVAL_STATUS ( 'not_yet_approved' ) ;
#187 = CC_DESIGN_APPROVAL ( #185, ( #198 ) ) ;
#188 = CALENDAR_DATE ( 2009, 14, 9 ) ;
#189 = DATE_AND_TIME ( #188, #190 ) ;
#190 = LOCAL_TIME ( 16, 26, 1.000000000000000000, #196 ) ;
#191 = DATE_AND_TIME ( #179, #201 ) ;
#192 = DATE_TIME_ROLE ( 'classification_date' ) ;
#193 = PERSON_AND_ORGANIZATION ( #78, #77 ) ;
#194 = CC_DESIGN_DATE_AND_TIME_ASSIGNMENT ( #191, #192, ( #198 ) ) ;
#195 = APPROVAL_DATE_TIME ( #189, #185 ) ;
#196 = COORDINATED_UNIVERSAL_TIME_OFFSET ( 5, 0, .BEHIND. ) ;
#197 = CC_DESIGN_PERSON_AND_ORGANIZATION_ASSIGNMENT ( #182, #176, ( #198 ) ) ;
#198 = SECURITY_CLASSIFICATION ( '', '', #181 ) ;
#199 = APPROVAL_PERSON_ORGANIZATION ( #193, #185, #200 ) ;
#200 = APPROVAL_ROLE ( '' ) ;
#201 = LOCAL_TIME ( 16, 26, 1.000000000000000000, #178 ) ;
ENDSEC;
END-ISO-10303-21;
