ISO-10303-21;
HEADER;
FILE_DESCRIPTION (( 'STEP AP203' ),
    '1' );
FILE_NAME ('Web Model 48459MX_43208.step',
    '2017-10-30T13:22:16',
    ( '' ),
    ( '' ),
    'SwSTEP 2.0',
    'SolidWorks 2016',
    '' );
FILE_SCHEMA (( 'CONFIG_CONTROL_DESIGN' ));
ENDSEC;

DATA;
#1 = EDGE_CURVE ( 'NONE', #60, #14, #226, .T. ) ;
#2 = CARTESIAN_POINT ( 'NONE',  ( 24.99999999999999600, 25.00000000000000400, 4.750000000000000000 ) ) ;
#3 = PERSON_AND_ORGANIZATION ( #6, #183 ) ;
#4 = CARTESIAN_POINT ( 'NONE',  ( 24.99999999999999600, -24.99999999999999600, 4.750000000000000000 ) ) ;
#5 = FACE_OUTER_BOUND ( 'NONE', #112, .T. ) ;
#6 = PERSON ( 'UNSPECIFIED', 'UNSPECIFIED', 'UNSPECIFIED', ('UNSPECIFIED'), ('UNSPECIFIED'), ('UNSPECIFIED') ) ;
#7 = CC_DESIGN_SECURITY_CLASSIFICATION ( #221, ( #38 ) ) ;
#8 = DATE_TIME_ROLE ( 'classification_date' ) ;
#9 = APPROVAL_STATUS ( 'not_yet_approved' ) ;
#10 = DIRECTION ( 'NONE',  ( -1.000000000000000000, -1.387778780781445700E-016, 0.0000000000000000000 ) ) ;
#11 = CC_DESIGN_PERSON_AND_ORGANIZATION_ASSIGNMENT ( #166, #179, ( #221 ) ) ;
#12 = LINE ( 'NONE', #40, #42 ) ;
#13 = APPROVAL_PERSON_ORGANIZATION ( #224, #15, #99 ) ;
#14 = VERTEX_POINT ( 'NONE', #19 ) ;
#15 = APPROVAL ( #118, 'UNSPECIFIED' ) ;
#16 = FACE_OUTER_BOUND ( 'NONE', #185, .T. ) ;
#17 = CARTESIAN_POINT ( 'NONE',  ( -25.00000000000000400, -25.00000000000000400, 4.750000000000000000 ) ) ;
#18 = DIRECTION ( 'NONE',  ( -0.0000000000000000000, -0.0000000000000000000, -1.000000000000000000 ) ) ;
#19 = CARTESIAN_POINT ( 'NONE',  ( -25.00000000000000400, -25.00000000000000400, -4.750000000000000000 ) ) ;
#20 = COORDINATED_UNIVERSAL_TIME_OFFSET ( 5, 0, .BEHIND. ) ;
#21 = VERTEX_POINT ( 'NONE', #76 ) ;
#22 = PRODUCT ( 'Web Model 48459MX_43208', 'Web Model 48459MX_43208', '', ( #159 ) ) ;
#23 = DIRECTION ( 'NONE',  ( -0.0000000000000000000, -0.0000000000000000000, -1.000000000000000000 ) ) ;
#24 = EDGE_CURVE ( 'NONE', #229, #155, #50, .T. ) ;
#25 = APPROVAL_PERSON_ORGANIZATION ( #199, #97, #139 ) ;
#26 = PLANE ( 'NONE',  #217 ) ;
#27 = CARTESIAN_POINT ( 'NONE',  ( 0.0000000000000000000, 0.0000000000000000000, 0.0000000000000000000 ) ) ;
#28 = VECTOR ( 'NONE', #18, 1000.000000000000000 ) ;
#29 = DIRECTION ( 'NONE',  ( 0.0000000000000000000, 0.0000000000000000000, 1.000000000000000000 ) ) ;
#30 = CALENDAR_DATE ( 2017, 30, 10 ) ;
#31 = PRODUCT_DEFINITION ( 'UNKNOWN', '', #38, #143 ) ;
#32 = EDGE_LOOP ( 'NONE', ( #210, #33, #197, #144 ) ) ;
#33 = ORIENTED_EDGE ( 'NONE', *, *, #237, .F. ) ;
#34 = ADVANCED_FACE ( 'NONE', ( #70 ), #55, .F. ) ;
#35 = CARTESIAN_POINT ( 'NONE',  ( -25.00000000000000400, -25.00000000000000400, 4.750000000000000000 ) ) ;
#36 = VECTOR ( 'NONE', #173, 1000.000000000000000 ) ;
#37 = EDGE_LOOP ( 'NONE', ( #103, #236, #164, #61 ) ) ;
#38 = PRODUCT_DEFINITION_FORMATION_WITH_SPECIFIED_SOURCE ( 'ANY', '', #22, .NOT_KNOWN. ) ;
#39 = CARTESIAN_POINT ( 'NONE',  ( 24.99999999999999600, -24.99999999999999600, 4.750000000000000000 ) ) ;
#40 = CARTESIAN_POINT ( 'NONE',  ( 24.99999999999999600, 25.00000000000000400, 4.750000000000000000 ) ) ;
#41 = PERSON_AND_ORGANIZATION_ROLE ( 'design_owner' ) ;
#42 = VECTOR ( 'NONE', #175, 1000.000000000000000 ) ;
#43 = SECURITY_CLASSIFICATION_LEVEL ( 'unclassified' ) ;
#44 = APPLICATION_PROTOCOL_DEFINITION ( 'international standard', 'config_control_design', 1994, #233 ) ;
#45 = APPLICATION_PROTOCOL_DEFINITION ( 'international standard', 'config_control_design', 1994, #213 ) ;
#46 = AXIS2_PLACEMENT_3D ( 'NONE', #137, #80, #66 ) ;
#47 = ORIENTED_EDGE ( 'NONE', *, *, #163, .T. ) ;
#48 = APPROVAL_DATE_TIME ( #145, #97 ) ;
#49 = CC_DESIGN_PERSON_AND_ORGANIZATION_ASSIGNMENT ( #130, #41, ( #22 ) ) ;
#50 = LINE ( 'NONE', #107, #177 ) ;
#51 = CC_DESIGN_PERSON_AND_ORGANIZATION_ASSIGNMENT ( #123, #67, ( #31 ) ) ;
#52 = DIRECTION ( 'NONE',  ( 1.000000000000000000, 1.387778780781445700E-016, 0.0000000000000000000 ) ) ;
#53 = LOCAL_TIME ( 9, 22, 16.00000000000000000, #20 ) ;
#54 = DIRECTION ( 'NONE',  ( -1.000000000000000000, 0.0000000000000000000, 0.0000000000000000000 ) ) ;
#55 = PLANE ( 'NONE',  #181 ) ;
#56 = DIRECTION ( 'NONE',  ( -0.0000000000000000000, -1.000000000000000000, -0.0000000000000000000 ) ) ;
#57 = EDGE_CURVE ( 'NONE', #229, #60, #147, .T. ) ;
#58 = LOCAL_TIME ( 9, 22, 16.00000000000000000, #111 ) ;
#59 = DIRECTION ( 'NONE',  ( 0.0000000000000000000, -0.0000000000000000000, 1.000000000000000000 ) ) ;
#60 = VERTEX_POINT ( 'NONE', #17 ) ;
#61 = ORIENTED_EDGE ( 'NONE', *, *, #1, .T. ) ;
#62 = CC_DESIGN_APPROVAL ( #15, ( #31 ) ) ;
#63 = CARTESIAN_POINT ( 'NONE',  ( 24.99999999999999600, -24.99999999999999600, 4.750000000000000000 ) ) ;
#64 = PLANE ( 'NONE',  #186 ) ;
#65 = COORDINATED_UNIVERSAL_TIME_OFFSET ( 5, 0, .BEHIND. ) ;
#66 = DIRECTION ( 'NONE',  ( 0.0000000000000000000, 0.0000000000000000000, -1.000000000000000000 ) ) ;
#67 = PERSON_AND_ORGANIZATION_ROLE ( 'creator' ) ;
#68 = APPROVAL_STATUS ( 'not_yet_approved' ) ;
#69 = LINE ( 'NONE', #231, #206 ) ;
#70 = FACE_OUTER_BOUND ( 'NONE', #37, .T. ) ;
#71 = FACE_OUTER_BOUND ( 'NONE', #32, .T. ) ;
#72 = UNCERTAINTY_MEASURE_WITH_UNIT (LENGTH_MEASURE( 1.000000000000000100E-005 ), #157, 'distance_accuracy_value', 'NONE');
#73 = CALENDAR_DATE ( 2017, 30, 10 ) ;
#74 = VECTOR ( 'NONE', #56, 1000.000000000000000 ) ;
#75 = ORIENTED_EDGE ( 'NONE', *, *, #57, .T. ) ;
#76 = CARTESIAN_POINT ( 'NONE',  ( 24.99999999999999600, -24.99999999999999600, -4.750000000000000000 ) ) ;
#77 = LINE ( 'NONE', #63, #182 ) ;
#78 = CARTESIAN_POINT ( 'NONE',  ( 24.99999999999999600, -24.99999999999999600, -4.750000000000000000 ) ) ;
#79 = DIRECTION ( 'NONE',  ( 1.000000000000000000, 0.0000000000000000000, -0.0000000000000000000 ) ) ;
#80 = DIRECTION ( 'NONE',  ( 1.000000000000000000, 0.0000000000000000000, 0.0000000000000000000 ) ) ;
#81 = LOCAL_TIME ( 9, 22, 16.00000000000000000, #194 ) ;
#82 = PERSON_AND_ORGANIZATION_ROLE ( 'design_supplier' ) ;
#83 = VERTEX_POINT ( 'NONE', #131 ) ;
#84 =( NAMED_UNIT ( * ) SI_UNIT ( $, .STERADIAN. ) SOLID_ANGLE_UNIT ( ) );
#85 = ORIENTED_EDGE ( 'NONE', *, *, #189, .T. ) ;
#86 = VECTOR ( 'NONE', #135, 1000.000000000000000 ) ;
#87 = ADVANCED_FACE ( 'NONE', ( #5 ), #93, .F. ) ;
#88 = COORDINATED_UNIVERSAL_TIME_OFFSET ( 5, 0, .BEHIND. ) ;
#89 = PLANE ( 'NONE',  #126 ) ;
#90 = ADVANCED_FACE ( 'NONE', ( #142 ), #89, .F. ) ;
#91 = MANIFOLD_SOLID_BREP ( 'Boss-Extrude1', #161 ) ;
#92 = LINE ( 'NONE', #150, #74 ) ;
#93 = PLANE ( 'NONE',  #191 ) ;
#94 = DIRECTION ( 'NONE',  ( -1.387778780781445700E-016, 1.000000000000000000, 0.0000000000000000000 ) ) ;
#95 = EDGE_CURVE ( 'NONE', #83, #216, #124, .T. ) ;
#96 = ADVANCED_BREP_SHAPE_REPRESENTATION ( 'Web Model 48459MX_43208', ( #91, #208 ), #121 ) ;
#97 = APPROVAL ( #9, 'UNSPECIFIED' ) ;
#98 = LOCAL_TIME ( 9, 22, 16.00000000000000000, #65 ) ;
#99 = APPROVAL_ROLE ( '' ) ;
#100 = ORIENTED_EDGE ( 'NONE', *, *, #95, .T. ) ;
#101 = DATE_AND_TIME ( #73, #98 ) ;
#102 = ORIENTED_EDGE ( 'NONE', *, *, #24, .T. ) ;
#103 = ORIENTED_EDGE ( 'NONE', *, *, #133, .T. ) ;
#104 = CC_DESIGN_PERSON_AND_ORGANIZATION_ASSIGNMENT ( #128, #195, ( #38 ) ) ;
#105 = CALENDAR_DATE ( 2017, 30, 10 ) ;
#106 = CC_DESIGN_APPROVAL ( #97, ( #38 ) ) ;
#107 = CARTESIAN_POINT ( 'NONE',  ( -25.00000000000000400, 24.99999999999999600, 4.750000000000000000 ) ) ;
#108 = DATE_AND_TIME ( #115, #151 ) ;
#109 = CARTESIAN_POINT ( 'NONE',  ( 24.99999999999999600, -24.99999999999999600, 4.750000000000000000 ) ) ;
#110 = CARTESIAN_POINT ( 'NONE',  ( -25.00000000000000400, -25.00000000000000400, 4.750000000000000000 ) ) ;
#111 = COORDINATED_UNIVERSAL_TIME_OFFSET ( 5, 0, .BEHIND. ) ;
#112 = EDGE_LOOP ( 'NONE', ( #200, #140, #152, #184 ) ) ;
#113 = VERTEX_POINT ( 'NONE', #109 ) ;
#114 = CARTESIAN_POINT ( 'NONE',  ( 24.99999999999999600, 25.00000000000000400, -4.750000000000000000 ) ) ;
#115 = CALENDAR_DATE ( 2017, 30, 10 ) ;
#116 = FACE_OUTER_BOUND ( 'NONE', #120, .T. ) ;
#117 = DIRECTION ( 'NONE',  ( 0.0000000000000000000, 1.000000000000000000, 0.0000000000000000000 ) ) ;
#118 = APPROVAL_STATUS ( 'not_yet_approved' ) ;
#119 = APPROVAL_DATE_TIME ( #101, #15 ) ;
#120 = EDGE_LOOP ( 'NONE', ( #156, #215, #196, #102 ) ) ;
#121 =( GEOMETRIC_REPRESENTATION_CONTEXT ( 3 ) GLOBAL_UNCERTAINTY_ASSIGNED_CONTEXT ( ( #72 ) ) GLOBAL_UNIT_ASSIGNED_CONTEXT ( ( #157, #180, #84 ) ) REPRESENTATION_CONTEXT ( 'NONE', 'WORKASPACE' ) );
#122 = APPROVAL_PERSON_ORGANIZATION ( #174, #198, #211 ) ;
#123 = PERSON_AND_ORGANIZATION ( #6, #183 ) ;
#124 = LINE ( 'NONE', #223, #218 ) ;
#125 = ORIENTED_EDGE ( 'NONE', *, *, #189, .F. ) ;
#126 = AXIS2_PLACEMENT_3D ( 'NONE', #2, #129, #52 ) ;
#127 = EDGE_CURVE ( 'NONE', #155, #14, #92, .T. ) ;
#128 = PERSON_AND_ORGANIZATION ( #6, #183 ) ;
#129 = DIRECTION ( 'NONE',  ( 1.387778780781445700E-016, -1.000000000000000000, 0.0000000000000000000 ) ) ;
#130 = PERSON_AND_ORGANIZATION ( #6, #183 ) ;
#131 = CARTESIAN_POINT ( 'NONE',  ( 24.99999999999999600, 25.00000000000000400, 4.750000000000000000 ) ) ;
#132 = CARTESIAN_POINT ( 'NONE',  ( 24.99999999999999600, -24.99999999999999600, 4.750000000000000000 ) ) ;
#133 = EDGE_CURVE ( 'NONE', #14, #21, #141, .T. ) ;
#134 = CARTESIAN_POINT ( 'NONE',  ( -25.00000000000000400, 24.99999999999999600, 4.750000000000000000 ) ) ;
#135 = DIRECTION ( 'NONE',  ( 1.000000000000000000, 1.387778780781445700E-016, -0.0000000000000000000 ) ) ;
#136 = CC_DESIGN_DATE_AND_TIME_ASSIGNMENT ( #220, #8, ( #221 ) ) ;
#137 = CARTESIAN_POINT ( 'NONE',  ( -25.00000000000000400, -25.00000000000000400, 4.750000000000000000 ) ) ;
#138 = DATE_TIME_ROLE ( 'creation_date' ) ;
#139 = APPROVAL_ROLE ( '' ) ;
#140 = ORIENTED_EDGE ( 'NONE', *, *, #95, .F. ) ;
#141 = LINE ( 'NONE', #78, #86 ) ;
#142 = FACE_OUTER_BOUND ( 'NONE', #219, .T. ) ;
#143 = DESIGN_CONTEXT ( 'detailed design', #233, 'design' ) ;
#144 = ORIENTED_EDGE ( 'NONE', *, *, #133, .F. ) ;
#145 = DATE_AND_TIME ( #202, #58 ) ;
#146 = DIRECTION ( 'NONE',  ( -0.0000000000000000000, -1.000000000000000000, -0.0000000000000000000 ) ) ;
#147 = LINE ( 'NONE', #110, #207 ) ;
#148 = DIRECTION ( 'NONE',  ( -0.0000000000000000000, -0.0000000000000000000, -1.000000000000000000 ) ) ;
#149 = ADVANCED_FACE ( 'NONE', ( #116 ), #172, .F. ) ;
#150 = CARTESIAN_POINT ( 'NONE',  ( -25.00000000000000400, -25.00000000000000400, -4.750000000000000000 ) ) ;
#151 = LOCAL_TIME ( 9, 22, 16.00000000000000000, #88 ) ;
#152 = ORIENTED_EDGE ( 'NONE', *, *, #163, .F. ) ;
#153 = CARTESIAN_POINT ( 'NONE',  ( 24.99999999999999600, -24.99999999999999600, -4.750000000000000000 ) ) ;
#154 = DIRECTION ( 'NONE',  ( 0.0000000000000000000, -0.0000000000000000000, 1.000000000000000000 ) ) ;
#155 = VERTEX_POINT ( 'NONE', #169 ) ;
#156 = ORIENTED_EDGE ( 'NONE', *, *, #127, .T. ) ;
#157 =( LENGTH_UNIT ( ) NAMED_UNIT ( * ) SI_UNIT ( .MILLI., .METRE. ) );
#158 = CC_DESIGN_PERSON_AND_ORGANIZATION_ASSIGNMENT ( #3, #82, ( #38 ) ) ;
#159 = MECHANICAL_CONTEXT ( 'NONE', #213, 'mechanical' ) ;
#160 = DIRECTION ( 'NONE',  ( 1.000000000000000000, 0.0000000000000000000, 0.0000000000000000000 ) ) ;
#161 = CLOSED_SHELL ( 'NONE', ( #149, #34, #87, #90, #225, #165 ) ) ;
#162 = VECTOR ( 'NONE', #10, 1000.000000000000000 ) ;
#163 = EDGE_CURVE ( 'NONE', #113, #83, #77, .T. ) ;
#164 = ORIENTED_EDGE ( 'NONE', *, *, #212, .F. ) ;
#165 = ADVANCED_FACE ( 'NONE', ( #71 ), #64, .F. ) ;
#166 = PERSON_AND_ORGANIZATION ( #6, #183 ) ;
#167 = DIRECTION ( 'NONE',  ( -0.0000000000000000000, -0.0000000000000000000, -1.000000000000000000 ) ) ;
#168 = LINE ( 'NONE', #114, #162 ) ;
#169 = CARTESIAN_POINT ( 'NONE',  ( -25.00000000000000400, 24.99999999999999600, -4.750000000000000000 ) ) ;
#170 = CARTESIAN_POINT ( 'NONE',  ( 0.0000000000000000000, 0.0000000000000000000, 4.750000000000000000 ) ) ;
#171 = EDGE_CURVE ( 'NONE', #113, #21, #69, .T. ) ;
#172 = PLANE ( 'NONE',  #46 ) ;
#173 = DIRECTION ( 'NONE',  ( 1.000000000000000000, 1.387778780781445700E-016, -0.0000000000000000000 ) ) ;
#174 = PERSON_AND_ORGANIZATION ( #6, #183 ) ;
#175 = DIRECTION ( 'NONE',  ( -1.000000000000000000, -1.387778780781445700E-016, 0.0000000000000000000 ) ) ;
#176 = LINE ( 'NONE', #39, #36 ) ;
#177 = VECTOR ( 'NONE', #167, 1000.000000000000000 ) ;
#178 = PRODUCT_DEFINITION_SHAPE ( 'NONE', 'NONE',  #31 ) ;
#179 = PERSON_AND_ORGANIZATION_ROLE ( 'classification_officer' ) ;
#180 =( NAMED_UNIT ( * ) PLANE_ANGLE_UNIT ( ) SI_UNIT ( $, .RADIAN. ) );
#181 = AXIS2_PLACEMENT_3D ( 'NONE', #132, #94, #188 ) ;
#182 = VECTOR ( 'NONE', #230, 1000.000000000000000 ) ;
#183 = ORGANIZATION ( 'UNSPECIFIED', 'UNSPECIFIED', '' ) ;
#184 = ORIENTED_EDGE ( 'NONE', *, *, #171, .T. ) ;
#185 = EDGE_LOOP ( 'NONE', ( #75, #193, #47, #85 ) ) ;
#186 = AXIS2_PLACEMENT_3D ( 'NONE', #228, #154, #190 ) ;
#187 = VECTOR ( 'NONE', #117, 1000.000000000000000 ) ;
#188 = DIRECTION ( 'NONE',  ( -1.000000000000000000, -1.387778780781445700E-016, 0.0000000000000000000 ) ) ;
#189 = EDGE_CURVE ( 'NONE', #83, #229, #12, .T. ) ;
#190 = DIRECTION ( 'NONE',  ( 1.000000000000000000, 0.0000000000000000000, -0.0000000000000000000 ) ) ;
#191 = AXIS2_PLACEMENT_3D ( 'NONE', #4, #54, #222 ) ;
#192 = CARTESIAN_POINT ( 'NONE',  ( 24.99999999999999600, 25.00000000000000400, -4.750000000000000000 ) ) ;
#193 = ORIENTED_EDGE ( 'NONE', *, *, #212, .T. ) ;
#194 = COORDINATED_UNIVERSAL_TIME_OFFSET ( 5, 0, .BEHIND. ) ;
#195 = PERSON_AND_ORGANIZATION_ROLE ( 'creator' ) ;
#196 = ORIENTED_EDGE ( 'NONE', *, *, #57, .F. ) ;
#197 = ORIENTED_EDGE ( 'NONE', *, *, #204, .F. ) ;
#198 = APPROVAL ( #68, 'UNSPECIFIED' ) ;
#199 = PERSON_AND_ORGANIZATION ( #6, #183 ) ;
#200 = ORIENTED_EDGE ( 'NONE', *, *, #204, .T. ) ;
#201 = ORIENTED_EDGE ( 'NONE', *, *, #24, .F. ) ;
#202 = CALENDAR_DATE ( 2017, 30, 10 ) ;
#203 = PRODUCT_RELATED_PRODUCT_CATEGORY ( 'detail', '', ( #22 ) ) ;
#204 = EDGE_CURVE ( 'NONE', #21, #216, #235, .T. ) ;
#205 = CC_DESIGN_APPROVAL ( #198, ( #221 ) ) ;
#206 = VECTOR ( 'NONE', #23, 1000.000000000000000 ) ;
#207 = VECTOR ( 'NONE', #146, 1000.000000000000000 ) ;
#208 = AXIS2_PLACEMENT_3D ( 'NONE', #27, #29, #160 ) ;
#209 = APPROVAL_DATE_TIME ( #108, #198 ) ;
#210 = ORIENTED_EDGE ( 'NONE', *, *, #127, .F. ) ;
#211 = APPROVAL_ROLE ( '' ) ;
#212 = EDGE_CURVE ( 'NONE', #60, #113, #176, .T. ) ;
#213 = APPLICATION_CONTEXT ( 'configuration controlled 3d designs of mechanical parts and assemblies' ) ;
#214 = DATE_AND_TIME ( #105, #53 ) ;
#215 = ORIENTED_EDGE ( 'NONE', *, *, #1, .F. ) ;
#216 = VERTEX_POINT ( 'NONE', #192 ) ;
#217 = AXIS2_PLACEMENT_3D ( 'NONE', #170, #59, #79 ) ;
#218 = VECTOR ( 'NONE', #148, 1000.000000000000000 ) ;
#219 = EDGE_LOOP ( 'NONE', ( #227, #201, #125, #100 ) ) ;
#220 = DATE_AND_TIME ( #30, #81 ) ;
#221 = SECURITY_CLASSIFICATION ( '', '', #43 ) ;
#222 = DIRECTION ( 'NONE',  ( 0.0000000000000000000, 0.0000000000000000000, 1.000000000000000000 ) ) ;
#223 = CARTESIAN_POINT ( 'NONE',  ( 24.99999999999999600, 25.00000000000000400, 4.750000000000000000 ) ) ;
#224 = PERSON_AND_ORGANIZATION ( #6, #183 ) ;
#225 = ADVANCED_FACE ( 'NONE', ( #16 ), #26, .T. ) ;
#226 = LINE ( 'NONE', #35, #28 ) ;
#227 = ORIENTED_EDGE ( 'NONE', *, *, #237, .T. ) ;
#228 = CARTESIAN_POINT ( 'NONE',  ( 0.0000000000000000000, 0.0000000000000000000, -4.750000000000000000 ) ) ;
#229 = VERTEX_POINT ( 'NONE', #134 ) ;
#230 = DIRECTION ( 'NONE',  ( 0.0000000000000000000, 1.000000000000000000, 0.0000000000000000000 ) ) ;
#231 = CARTESIAN_POINT ( 'NONE',  ( 24.99999999999999600, -24.99999999999999600, 4.750000000000000000 ) ) ;
#232 = SHAPE_DEFINITION_REPRESENTATION ( #178, #96 ) ;
#233 = APPLICATION_CONTEXT ( 'configuration controlled 3d designs of mechanical parts and assemblies' ) ;
#234 = CC_DESIGN_DATE_AND_TIME_ASSIGNMENT ( #214, #138, ( #31 ) ) ;
#235 = LINE ( 'NONE', #153, #187 ) ;
#236 = ORIENTED_EDGE ( 'NONE', *, *, #171, .F. ) ;
#237 = EDGE_CURVE ( 'NONE', #216, #155, #168, .T. ) ;
ENDSEC;
END-ISO-10303-21;
