ISO-10303-21;
HEADER;
FILE_DESCRIPTION (( 'STEP AP203' ),
    '1' );
FILE_NAME ('Web Model 84492_48193.step',
    '2017-05-19T14:52:19',
    ( '' ),
    ( '' ),
    'SwSTEP 2.0',
    'SolidWorks 2016',
    '' );
FILE_SCHEMA (( 'CONFIG_CONTROL_DESIGN' ));
ENDSEC;

DATA;
#1 = EDGE_CURVE ( 'NONE', #229, #104, #62, .T. ) ;
#2 = DATE_AND_TIME ( #122, #71 ) ;
#3 = EDGE_LOOP ( 'NONE', ( #98, #158, #226, #189 ) ) ;
#4 = CARTESIAN_POINT ( 'NONE',  ( -25.00000000000000000, -25.00000000000000000, 0.0000000000000000000 ) ) ;
#5 = FACE_OUTER_BOUND ( 'NONE', #118, .T. ) ;
#6 = COORDINATED_UNIVERSAL_TIME_OFFSET ( 5, 0, .BEHIND. ) ;
#7 = CC_DESIGN_PERSON_AND_ORGANIZATION_ASSIGNMENT ( #79, #126, ( #235 ) ) ;
#8 = ORIENTED_EDGE ( 'NONE', *, *, #136, .F. ) ;
#9 = CARTESIAN_POINT ( 'NONE',  ( 24.99999999999999600, 24.99999999999999600, 0.0000000000000000000 ) ) ;
#10 = PRODUCT_DEFINITION_SHAPE ( 'NONE', 'NONE',  #235 ) ;
#11 = LINE ( 'NONE', #152, #92 ) ;
#12 = ORIENTED_EDGE ( 'NONE', *, *, #117, .T. ) ;
#13 = PERSON_AND_ORGANIZATION_ROLE ( 'creator' ) ;
#14 = LINE ( 'NONE', #137, #102 ) ;
#15 = PRODUCT_DEFINITION_FORMATION_WITH_SPECIFIED_SOURCE ( 'ANY', '', #172, .NOT_KNOWN. ) ;
#16 = DIRECTION ( 'NONE',  ( -0.0000000000000000000, 0.0000000000000000000, 1.000000000000000000 ) ) ;
#17 = APPROVAL_DATE_TIME ( #2, #148 ) ;
#18 = FACE_OUTER_BOUND ( 'NONE', #60, .T. ) ;
#19 = ORIENTED_EDGE ( 'NONE', *, *, #199, .T. ) ;
#20 = CC_DESIGN_DATE_AND_TIME_ASSIGNMENT ( #25, #187, ( #235 ) ) ;
#21 = PLANE ( 'NONE',  #132 ) ;
#22 = CARTESIAN_POINT ( 'NONE',  ( 24.99999999999999600, 24.99999999999999600, 4.000000000000000000 ) ) ;
#23 = DATE_AND_TIME ( #139, #192 ) ;
#24 = CARTESIAN_POINT ( 'NONE',  ( -25.00000000000000400, 25.00000000000000000, 4.000000000000000000 ) ) ;
#25 = DATE_AND_TIME ( #196, #144 ) ;
#26 = ORIENTED_EDGE ( 'NONE', *, *, #213, .F. ) ;
#27 = VECTOR ( 'NONE', #183, 1000.000000000000000 ) ;
#28 = SHAPE_DEFINITION_REPRESENTATION ( #10, #193 ) ;
#29 = VECTOR ( 'NONE', #224, 1000.000000000000000 ) ;
#30 = CC_DESIGN_PERSON_AND_ORGANIZATION_ASSIGNMENT ( #64, #151, ( #149 ) ) ;
#31 = ORIENTED_EDGE ( 'NONE', *, *, #66, .T. ) ;
#32 =( NAMED_UNIT ( * ) SI_UNIT ( $, .STERADIAN. ) SOLID_ANGLE_UNIT ( ) );
#33 = CC_DESIGN_PERSON_AND_ORGANIZATION_ASSIGNMENT ( #166, #13, ( #15 ) ) ;
#34 = VECTOR ( 'NONE', #163, 1000.000000000000000 ) ;
#35 = VECTOR ( 'NONE', #97, 1000.000000000000000 ) ;
#36 = APPROVAL_ROLE ( '' ) ;
#37 = APPROVAL_ROLE ( '' ) ;
#38 = DATE_AND_TIME ( #121, #225 ) ;
#39 = PERSON ( 'UNSPECIFIED', 'UNSPECIFIED', 'UNSPECIFIED', ('UNSPECIFIED'), ('UNSPECIFIED'), ('UNSPECIFIED') ) ;
#40 = LINE ( 'NONE', #9, #34 ) ;
#41 = ORIENTED_EDGE ( 'NONE', *, *, #199, .F. ) ;
#42 = CARTESIAN_POINT ( 'NONE',  ( -25.00000000000000000, -25.00000000000000000, 4.000000000000000000 ) ) ;
#43 = ADVANCED_FACE ( 'NONE', ( #181 ), #219, .F. ) ;
#44 = DIRECTION ( 'NONE',  ( -0.0000000000000000000, -0.0000000000000000000, -1.000000000000000000 ) ) ;
#45 = VECTOR ( 'NONE', #44, 1000.000000000000000 ) ;
#46 = ORIENTED_EDGE ( 'NONE', *, *, #124, .T. ) ;
#47 = VECTOR ( 'NONE', #223, 1000.000000000000000 ) ;
#48 =( GEOMETRIC_REPRESENTATION_CONTEXT ( 3 ) GLOBAL_UNCERTAINTY_ASSIGNED_CONTEXT ( ( #55 ) ) GLOBAL_UNIT_ASSIGNED_CONTEXT ( ( #49, #168, #32 ) ) REPRESENTATION_CONTEXT ( 'NONE', 'WORKASPACE' ) );
#49 =( LENGTH_UNIT ( ) NAMED_UNIT ( * ) SI_UNIT ( .MILLI., .METRE. ) );
#50 = PERSON_AND_ORGANIZATION_ROLE ( 'design_supplier' ) ;
#51 = CARTESIAN_POINT ( 'NONE',  ( -25.00000000000000000, -25.00000000000000000, 4.000000000000000000 ) ) ;
#52 = VECTOR ( 'NONE', #107, 1000.000000000000000 ) ;
#53 = AXIS2_PLACEMENT_3D ( 'NONE', #86, #105, #203 ) ;
#54 = DIRECTION ( 'NONE',  ( -0.0000000000000000000, -0.0000000000000000000, -1.000000000000000000 ) ) ;
#55 = UNCERTAINTY_MEASURE_WITH_UNIT (LENGTH_MEASURE( 1.000000000000000100E-005 ), #49, 'distance_accuracy_value', 'NONE');
#56 = CC_DESIGN_DATE_AND_TIME_ASSIGNMENT ( #143, #85, ( #149 ) ) ;
#57 = CARTESIAN_POINT ( 'NONE',  ( 25.00000000000000700, -25.00000000000000000, 4.000000000000000000 ) ) ;
#58 = ORIENTED_EDGE ( 'NONE', *, *, #66, .F. ) ;
#59 = APPROVAL_DATE_TIME ( #23, #185 ) ;
#60 = EDGE_LOOP ( 'NONE', ( #215, #202, #155, #233 ) ) ;
#61 = PERSON_AND_ORGANIZATION ( #39, #220 ) ;
#62 = LINE ( 'NONE', #67, #27 ) ;
#63 = PRODUCT_RELATED_PRODUCT_CATEGORY ( 'detail', '', ( #172 ) ) ;
#64 = PERSON_AND_ORGANIZATION ( #39, #220 ) ;
#65 = PERSON_AND_ORGANIZATION ( #39, #220 ) ;
#66 = EDGE_CURVE ( 'NONE', #195, #160, #119, .T. ) ;
#67 = CARTESIAN_POINT ( 'NONE',  ( -25.00000000000000400, 25.00000000000000000, 0.0000000000000000000 ) ) ;
#68 = LINE ( 'NONE', #227, #142 ) ;
#69 = VERTEX_POINT ( 'NONE', #78 ) ;
#70 = APPLICATION_CONTEXT ( 'configuration controlled 3d designs of mechanical parts and assemblies' ) ;
#71 = LOCAL_TIME ( 10, 52, 19.00000000000000000, #175 ) ;
#72 = SECURITY_CLASSIFICATION_LEVEL ( 'unclassified' ) ;
#73 = APPLICATION_PROTOCOL_DEFINITION ( 'international standard', 'config_control_design', 1994, #70 ) ;
#74 = DIRECTION ( 'NONE',  ( 1.000000000000000000, 0.0000000000000000000, 0.0000000000000000000 ) ) ;
#75 = APPROVAL_DATE_TIME ( #38, #140 ) ;
#76 = ORIENTED_EDGE ( 'NONE', *, *, #179, .T. ) ;
#77 = VERTEX_POINT ( 'NONE', #109 ) ;
#78 = CARTESIAN_POINT ( 'NONE',  ( 24.99999999999999600, 24.99999999999999600, 4.000000000000000000 ) ) ;
#79 = PERSON_AND_ORGANIZATION ( #39, #220 ) ;
#80 = CC_DESIGN_PERSON_AND_ORGANIZATION_ASSIGNMENT ( #114, #184, ( #172 ) ) ;
#81 = COORDINATED_UNIVERSAL_TIME_OFFSET ( 5, 0, .BEHIND. ) ;
#82 = EDGE_LOOP ( 'NONE', ( #147, #8, #41, #31 ) ) ;
#83 = APPROVAL_PERSON_ORGANIZATION ( #61, #140, #37 ) ;
#84 = LINE ( 'NONE', #135, #35 ) ;
#85 = DATE_TIME_ROLE ( 'classification_date' ) ;
#86 = CARTESIAN_POINT ( 'NONE',  ( 24.99999999999999600, 24.99999999999999600, 4.000000000000000000 ) ) ;
#87 = EDGE_LOOP ( 'NONE', ( #145, #46, #19, #12 ) ) ;
#88 = APPROVAL_STATUS ( 'not_yet_approved' ) ;
#89 = PLANE ( 'NONE',  #201 ) ;
#90 = CALENDAR_DATE ( 2017, 19, 5 ) ;
#91 = CC_DESIGN_APPROVAL ( #185, ( #15 ) ) ;
#92 = VECTOR ( 'NONE', #130, 1000.000000000000000 ) ;
#93 = PERSON_AND_ORGANIZATION ( #39, #220 ) ;
#94 = VERTEX_POINT ( 'NONE', #154 ) ;
#95 = ORIENTED_EDGE ( 'NONE', *, *, #124, .F. ) ;
#96 = DIRECTION ( 'NONE',  ( -6.938893903907228400E-017, 1.000000000000000000, 0.0000000000000000000 ) ) ;
#97 = DIRECTION ( 'NONE',  ( 6.938893903907228400E-017, -1.000000000000000000, 0.0000000000000000000 ) ) ;
#98 = ORIENTED_EDGE ( 'NONE', *, *, #1, .T. ) ;
#99 = FACE_OUTER_BOUND ( 'NONE', #87, .T. ) ;
#100 = MANIFOLD_SOLID_BREP ( 'Extrude1', #221 ) ;
#101 = AXIS2_PLACEMENT_3D ( 'NONE', #127, #16, #74 ) ;
#102 = VECTOR ( 'NONE', #111, 1000.000000000000000 ) ;
#103 = CARTESIAN_POINT ( 'NONE',  ( -25.00000000000000400, 25.00000000000000000, 4.000000000000000000 ) ) ;
#104 = VERTEX_POINT ( 'NONE', #190 ) ;
#105 = DIRECTION ( 'NONE',  ( -1.000000000000000000, -2.081668171172168500E-016, 0.0000000000000000000 ) ) ;
#106 = CARTESIAN_POINT ( 'NONE',  ( 0.0000000000000000000, 0.0000000000000000000, 0.0000000000000000000 ) ) ;
#107 = DIRECTION ( 'NONE',  ( 1.000000000000000000, 0.0000000000000000000, 0.0000000000000000000 ) ) ;
#108 = APPROVAL_STATUS ( 'not_yet_approved' ) ;
#109 = CARTESIAN_POINT ( 'NONE',  ( -25.00000000000000400, 25.00000000000000000, 4.000000000000000000 ) ) ;
#110 = ORIENTED_EDGE ( 'NONE', *, *, #222, .T. ) ;
#111 = DIRECTION ( 'NONE',  ( -1.000000000000000000, 6.938893903907228400E-017, -0.0000000000000000000 ) ) ;
#112 = ADVANCED_FACE ( 'NONE', ( #5 ), #89, .F. ) ;
#113 = DIRECTION ( 'NONE',  ( -0.0000000000000000000, -0.0000000000000000000, -1.000000000000000000 ) ) ;
#114 = PERSON_AND_ORGANIZATION ( #39, #220 ) ;
#115 = DIRECTION ( 'NONE',  ( -0.0000000000000000000, 0.0000000000000000000, 1.000000000000000000 ) ) ;
#116 = AXIS2_PLACEMENT_3D ( 'NONE', #103, #178, #216 ) ;
#117 = EDGE_CURVE ( 'NONE', #69, #77, #176, .T. ) ;
#118 = EDGE_LOOP ( 'NONE', ( #110, #58, #95, #76 ) ) ;
#119 = LINE ( 'NONE', #57, #128 ) ;
#120 = ADVANCED_FACE ( 'NONE', ( #99 ), #237, .T. ) ;
#121 = CALENDAR_DATE ( 2017, 19, 5 ) ;
#122 = CALENDAR_DATE ( 2017, 19, 5 ) ;
#123 = ORIENTED_EDGE ( 'NONE', *, *, #117, .F. ) ;
#124 = EDGE_CURVE ( 'NONE', #197, #195, #11, .T. ) ;
#125 = DIRECTION ( 'NONE',  ( 1.000000000000000000, 0.0000000000000000000, 0.0000000000000000000 ) ) ;
#126 = PERSON_AND_ORGANIZATION_ROLE ( 'creator' ) ;
#127 = CARTESIAN_POINT ( 'NONE',  ( -25.00000000000000000, -25.00000000000000000, 4.000000000000000000 ) ) ;
#128 = VECTOR ( 'NONE', #54, 1000.000000000000000 ) ;
#129 = APPROVAL_STATUS ( 'not_yet_approved' ) ;
#130 = DIRECTION ( 'NONE',  ( 1.000000000000000000, 0.0000000000000000000, 0.0000000000000000000 ) ) ;
#131 = PLANE ( 'NONE',  #116 ) ;
#132 = AXIS2_PLACEMENT_3D ( 'NONE', #4, #115, #156 ) ;
#133 = ADVANCED_FACE ( 'NONE', ( #18 ), #21, .F. ) ;
#134 = FACE_OUTER_BOUND ( 'NONE', #3, .T. ) ;
#135 = CARTESIAN_POINT ( 'NONE',  ( -25.00000000000000400, 25.00000000000000000, 4.000000000000000000 ) ) ;
#136 = EDGE_CURVE ( 'NONE', #69, #94, #212, .T. ) ;
#137 = CARTESIAN_POINT ( 'NONE',  ( -25.00000000000000400, 25.00000000000000000, 0.0000000000000000000 ) ) ;
#138 = CARTESIAN_POINT ( 'NONE',  ( 25.00000000000000700, -25.00000000000000000, 0.0000000000000000000 ) ) ;
#139 = CALENDAR_DATE ( 2017, 19, 5 ) ;
#140 = APPROVAL ( #129, 'UNSPECIFIED' ) ;
#141 = LOCAL_TIME ( 10, 52, 19.00000000000000000, #174 ) ;
#142 = VECTOR ( 'NONE', #173, 1000.000000000000000 ) ;
#143 = DATE_AND_TIME ( #90, #141 ) ;
#144 = LOCAL_TIME ( 10, 52, 19.00000000000000000, #81 ) ;
#145 = ORIENTED_EDGE ( 'NONE', *, *, #191, .T. ) ;
#146 = FACE_OUTER_BOUND ( 'NONE', #177, .T. ) ;
#147 = ORIENTED_EDGE ( 'NONE', *, *, #232, .T. ) ;
#148 = APPROVAL ( #88, 'UNSPECIFIED' ) ;
#149 = SECURITY_CLASSIFICATION ( '', '', #72 ) ;
#150 = CARTESIAN_POINT ( 'NONE',  ( -25.00000000000000400, 25.00000000000000000, 0.0000000000000000000 ) ) ;
#151 = PERSON_AND_ORGANIZATION_ROLE ( 'classification_officer' ) ;
#152 = CARTESIAN_POINT ( 'NONE',  ( -25.00000000000000000, -25.00000000000000000, 4.000000000000000000 ) ) ;
#153 = DIRECTION ( 'NONE',  ( 0.0000000000000000000, 1.000000000000000000, 0.0000000000000000000 ) ) ;
#154 = CARTESIAN_POINT ( 'NONE',  ( 24.99999999999999600, 24.99999999999999600, 0.0000000000000000000 ) ) ;
#155 = ORIENTED_EDGE ( 'NONE', *, *, #232, .F. ) ;
#156 = DIRECTION ( 'NONE',  ( 1.000000000000000000, 0.0000000000000000000, 0.0000000000000000000 ) ) ;
#157 = CC_DESIGN_APPROVAL ( #140, ( #149 ) ) ;
#158 = ORIENTED_EDGE ( 'NONE', *, *, #179, .F. ) ;
#159 = CARTESIAN_POINT ( 'NONE',  ( -25.00000000000000000, -25.00000000000000000, 4.000000000000000000 ) ) ;
#160 = VERTEX_POINT ( 'NONE', #138 ) ;
#161 = CC_DESIGN_APPROVAL ( #148, ( #235 ) ) ;
#162 = ADVANCED_FACE ( 'NONE', ( #134 ), #194, .F. ) ;
#163 = DIRECTION ( 'NONE',  ( -2.081668171172168500E-016, 1.000000000000000000, -0.0000000000000000000 ) ) ;
#164 = MECHANICAL_CONTEXT ( 'NONE', #70, 'mechanical' ) ;
#165 = APPLICATION_CONTEXT ( 'configuration controlled 3d designs of mechanical parts and assemblies' ) ;
#166 = PERSON_AND_ORGANIZATION ( #39, #220 ) ;
#167 = ORIENTED_EDGE ( 'NONE', *, *, #206, .T. ) ;
#168 =( NAMED_UNIT ( * ) PLANE_ANGLE_UNIT ( ) SI_UNIT ( $, .RADIAN. ) );
#169 = CARTESIAN_POINT ( 'NONE',  ( -25.00000000000000400, 25.00000000000000000, 4.000000000000000000 ) ) ;
#170 = DIRECTION ( 'NONE',  ( 0.0000000000000000000, -0.0000000000000000000, 1.000000000000000000 ) ) ;
#171 = APPROVAL_PERSON_ORGANIZATION ( #93, #185, #236 ) ;
#172 = PRODUCT ( 'Web Model 84492_48193', 'Web Model 84492_48193', '', ( #164 ) ) ;
#173 = DIRECTION ( 'NONE',  ( -2.081668171172168500E-016, 1.000000000000000000, -0.0000000000000000000 ) ) ;
#174 = COORDINATED_UNIVERSAL_TIME_OFFSET ( 5, 0, .BEHIND. ) ;
#175 = COORDINATED_UNIVERSAL_TIME_OFFSET ( 5, 0, .BEHIND. ) ;
#176 = LINE ( 'NONE', #169, #29 ) ;
#177 = EDGE_LOOP ( 'NONE', ( #167, #26, #123, #180 ) ) ;
#178 = DIRECTION ( 'NONE',  ( -6.938893903907228400E-017, -1.000000000000000000, 0.0000000000000000000 ) ) ;
#179 = EDGE_CURVE ( 'NONE', #197, #104, #186, .T. ) ;
#180 = ORIENTED_EDGE ( 'NONE', *, *, #136, .T. ) ;
#181 = FACE_OUTER_BOUND ( 'NONE', #82, .T. ) ;
#182 = CARTESIAN_POINT ( 'NONE',  ( -25.00000000000000400, 25.00000000000000000, 4.000000000000000000 ) ) ;
#183 = DIRECTION ( 'NONE',  ( 6.938893903907228400E-017, -1.000000000000000000, 0.0000000000000000000 ) ) ;
#184 = PERSON_AND_ORGANIZATION_ROLE ( 'design_owner' ) ;
#185 = APPROVAL ( #108, 'UNSPECIFIED' ) ;
#186 = LINE ( 'NONE', #42, #218 ) ;
#187 = DATE_TIME_ROLE ( 'creation_date' ) ;
#188 = DIRECTION ( 'NONE',  ( 0.0000000000000000000, 0.0000000000000000000, 1.000000000000000000 ) ) ;
#189 = ORIENTED_EDGE ( 'NONE', *, *, #213, .T. ) ;
#190 = CARTESIAN_POINT ( 'NONE',  ( -25.00000000000000000, -25.00000000000000000, 0.0000000000000000000 ) ) ;
#191 = EDGE_CURVE ( 'NONE', #77, #197, #84, .T. ) ;
#192 = LOCAL_TIME ( 10, 52, 19.00000000000000000, #211 ) ;
#193 = ADVANCED_BREP_SHAPE_REPRESENTATION ( 'Web Model 84492_48193', ( #100, #228 ), #48 ) ;
#194 = PLANE ( 'NONE',  #217 ) ;
#195 = VERTEX_POINT ( 'NONE', #214 ) ;
#196 = CALENDAR_DATE ( 2017, 19, 5 ) ;
#197 = VERTEX_POINT ( 'NONE', #159 ) ;
#198 = CC_DESIGN_PERSON_AND_ORGANIZATION_ASSIGNMENT ( #230, #50, ( #15 ) ) ;
#199 = EDGE_CURVE ( 'NONE', #195, #69, #68, .T. ) ;
#200 = CC_DESIGN_SECURITY_CLASSIFICATION ( #149, ( #15 ) ) ;
#201 = AXIS2_PLACEMENT_3D ( 'NONE', #51, #153, #170 ) ;
#202 = ORIENTED_EDGE ( 'NONE', *, *, #206, .F. ) ;
#203 = DIRECTION ( 'NONE',  ( 2.081668171172168500E-016, -1.000000000000000000, 0.0000000000000000000 ) ) ;
#204 = APPLICATION_PROTOCOL_DEFINITION ( 'international standard', 'config_control_design', 1994, #165 ) ;
#205 = LINE ( 'NONE', #182, #47 ) ;
#206 = EDGE_CURVE ( 'NONE', #94, #229, #14, .T. ) ;
#207 = APPROVAL_PERSON_ORGANIZATION ( #65, #148, #36 ) ;
#208 = ADVANCED_FACE ( 'NONE', ( #146 ), #131, .F. ) ;
#209 = DIRECTION ( 'NONE',  ( 1.000000000000000000, 6.938893903907228400E-017, -0.0000000000000000000 ) ) ;
#210 = DESIGN_CONTEXT ( 'detailed design', #165, 'design' ) ;
#211 = COORDINATED_UNIVERSAL_TIME_OFFSET ( 5, 0, .BEHIND. ) ;
#212 = LINE ( 'NONE', #22, #45 ) ;
#213 = EDGE_CURVE ( 'NONE', #77, #229, #205, .T. ) ;
#214 = CARTESIAN_POINT ( 'NONE',  ( 25.00000000000000700, -25.00000000000000000, 4.000000000000000000 ) ) ;
#215 = ORIENTED_EDGE ( 'NONE', *, *, #1, .F. ) ;
#216 = DIRECTION ( 'NONE',  ( 1.000000000000000000, -6.938893903907228400E-017, 0.0000000000000000000 ) ) ;
#217 = AXIS2_PLACEMENT_3D ( 'NONE', #24, #209, #96 ) ;
#218 = VECTOR ( 'NONE', #113, 1000.000000000000000 ) ;
#219 = PLANE ( 'NONE',  #53 ) ;
#220 = ORGANIZATION ( 'UNSPECIFIED', 'UNSPECIFIED', '' ) ;
#221 = CLOSED_SHELL ( 'NONE', ( #162, #112, #43, #208, #120, #133 ) ) ;
#222 = EDGE_CURVE ( 'NONE', #104, #160, #231, .T. ) ;
#223 = DIRECTION ( 'NONE',  ( -0.0000000000000000000, -0.0000000000000000000, -1.000000000000000000 ) ) ;
#224 = DIRECTION ( 'NONE',  ( -1.000000000000000000, 6.938893903907228400E-017, -0.0000000000000000000 ) ) ;
#225 = LOCAL_TIME ( 10, 52, 19.00000000000000000, #6 ) ;
#226 = ORIENTED_EDGE ( 'NONE', *, *, #191, .F. ) ;
#227 = CARTESIAN_POINT ( 'NONE',  ( 24.99999999999999600, 24.99999999999999600, 4.000000000000000000 ) ) ;
#228 = AXIS2_PLACEMENT_3D ( 'NONE', #106, #188, #125 ) ;
#229 = VERTEX_POINT ( 'NONE', #150 ) ;
#230 = PERSON_AND_ORGANIZATION ( #39, #220 ) ;
#231 = LINE ( 'NONE', #234, #52 ) ;
#232 = EDGE_CURVE ( 'NONE', #160, #94, #40, .T. ) ;
#233 = ORIENTED_EDGE ( 'NONE', *, *, #222, .F. ) ;
#234 = CARTESIAN_POINT ( 'NONE',  ( -25.00000000000000000, -25.00000000000000000, 0.0000000000000000000 ) ) ;
#235 = PRODUCT_DEFINITION ( 'UNKNOWN', '', #15, #210 ) ;
#236 = APPROVAL_ROLE ( '' ) ;
#237 = PLANE ( 'NONE',  #101 ) ;
ENDSEC;
END-ISO-10303-21;
