ISO-10303-21;
HEADER;
FILE_DESCRIPTION (( 'STEP AP203' ),
    '1' );
FILE_NAME ('4335-E0W.STEP',
    '2015-06-17T20:48:01',
    ( 'admin' ),
    ( '' ),
    'SwSTEP 2.0',
    'SolidWorks 2014',
    '' );
FILE_SCHEMA (( 'CONFIG_CONTROL_DESIGN' ));
ENDSEC;

DATA;
#1 =( LENGTH_UNIT ( ) NAMED_UNIT ( * ) SI_UNIT ( .MILLI., .METRE. ) );
#2 = DIRECTION ( 'NONE',  ( 0.0000000000000000000, 0.0000000000000000000, -1.000000000000000000 ) ) ;
#3 = DIRECTION ( 'NONE',  ( -0.0000000000000000000, -0.0000000000000000000, 1.000000000000000000 ) ) ;
#4 = DIRECTION ( 'NONE',  ( -1.000000000000000000, 1.224646799147353200E-016, 0.0000000000000000000 ) ) ;
#5 = ORIENTED_EDGE ( 'NONE', *, *, #77, .T. ) ;
#6 = ADVANCED_FACE ( 'NONE', ( #161 ), #39, .T. ) ;
#7 = FACE_OUTER_BOUND ( 'NONE', #167, .T. ) ;
#8 = DIRECTION ( 'NONE',  ( -1.000000000000000000, 0.0000000000000000000, 0.0000000000000000000 ) ) ;
#9 = AXIS2_PLACEMENT_3D ( 'NONE', #147, #88, #16 ) ;
#10 = FACE_OUTER_BOUND ( 'NONE', #181, .T. ) ;
#11 = DIRECTION ( 'NONE',  ( -0.0000000000000000000, -0.0000000000000000000, 1.000000000000000000 ) ) ;
#12 = ORIENTED_EDGE ( 'NONE', *, *, #311, .T. ) ;
#13 = CARTESIAN_POINT ( 'NONE',  ( 25.39999999999999900, 0.0000000000000000000, 1.228695299613086200 ) ) ;
#14 = CIRCLE ( 'NONE', #342, 183.0000000000000300 ) ;
#15 = EDGE_CURVE ( 'NONE', #222, #19, #189, .T. ) ;
#16 = DIRECTION ( 'NONE',  ( 1.000000000000000000, 0.0000000000000000000, 0.0000000000000000000 ) ) ;
#17 = CARTESIAN_POINT ( 'NONE',  ( 0.0000000000000000000, 0.0000000000000000000, -179.7500000000000000 ) ) ;
#18 = PERSON_AND_ORGANIZATION ( #78, #182 ) ;
#19 = VERTEX_POINT ( 'NONE', #178 ) ;
#20 = CIRCLE ( 'NONE', #187, 183.0000000000000000 ) ;
#21 = ORIENTED_EDGE ( 'NONE', *, *, #236, .T. ) ;
#22 = CC_DESIGN_APPROVAL ( #320, ( #87 ) ) ;
#23 = VERTEX_POINT ( 'NONE', #60 ) ;
#24 = CARTESIAN_POINT ( 'NONE',  ( 0.0000000000000000000, 0.0000000000000000000, 1.513198693418649200 ) ) ;
#25 = CONICAL_SURFACE ( 'NONE', #122, 25.15259031253506400, 0.7157744757313643200 ) ;
#26 = DIRECTION ( 'NONE',  ( 0.6562020214051109700, 8.036157051077921600E-017, -0.7545852550267904100 ) ) ;
#27 = AXIS2_PLACEMENT_3D ( 'NONE', #193, #143, #34 ) ;
#28 = CONICAL_SURFACE ( 'NONE', #62, 25.39999999999999900, 0.7157744757313924100 ) ;
#29 = APPROVAL_STATUS ( 'not_yet_approved' ) ;
#30 = DIRECTION ( 'NONE',  ( -1.000000000000000000, 0.0000000000000000000, 0.0000000000000000000 ) ) ;
#31 = DESIGN_CONTEXT ( 'detailed design', #351, 'design' ) ;
#32 = PERSON_AND_ORGANIZATION ( #78, #182 ) ;
#33 = CYLINDRICAL_SURFACE ( 'NONE', #9, 25.39999999999999900 ) ;
#34 = DIRECTION ( 'NONE',  ( 0.0000000000000000000, 1.000000000000000000, 0.0000000000000000000 ) ) ;
#35 = CC_DESIGN_APPROVAL ( #120, ( #152 ) ) ;
#36 = CIRCLE ( 'NONE', #362, 25.15259031253506400 ) ;
#37 = DIRECTION ( 'NONE',  ( 0.0000000000000000000, 0.0000000000000000000, -1.000000000000000000 ) ) ;
#38 = CARTESIAN_POINT ( 'NONE',  ( -25.39999999999999900, 3.110602869834276900E-015, -1.228695299613058500 ) ) ;
#39 = CONICAL_SURFACE ( 'NONE', #98, 25.15259031253506400, 0.7157744757313643200 ) ;
#40 = VERTEX_POINT ( 'NONE', #350 ) ;
#41 = CARTESIAN_POINT ( 'NONE',  ( 0.0000000000000000000, 0.0000000000000000000, -1.228695299613058500 ) ) ;
#42 = CC_DESIGN_APPROVAL ( #336, ( #106 ) ) ;
#43 = CC_DESIGN_PERSON_AND_ORGANIZATION_ASSIGNMENT ( #328, #262, ( #152 ) ) ;
#44 = LINE ( 'NONE', #59, #176 ) ;
#45 = DIRECTION ( 'NONE',  ( 0.0000000000000000000, 0.0000000000000000000, -1.000000000000000000 ) ) ;
#46 =( NAMED_UNIT ( * ) SI_UNIT ( $, .STERADIAN. ) SOLID_ANGLE_UNIT ( ) );
#47 = AXIS2_PLACEMENT_3D ( 'NONE', #79, #4, #116 ) ;
#48 = PERSON_AND_ORGANIZATION_ROLE ( 'design_owner' ) ;
#49 = VECTOR ( 'NONE', #150, 1000.000000000000000 ) ;
#50 = COORDINATED_UNIVERSAL_TIME_OFFSET ( 5, 0, .BEHIND. ) ;
#51 = ORIENTED_EDGE ( 'NONE', *, *, #102, .F. ) ;
#52 = DIRECTION ( 'NONE',  ( -1.000000000000000000, 0.0000000000000000000, 0.0000000000000000000 ) ) ;
#53 = MANIFOLD_SOLID_BREP ( '4335-001-1-solid1', #156 ) ;
#54 = CARTESIAN_POINT ( 'NONE',  ( 25.39999999999999900, 0.0000000000000000000, -1.228695299613058500 ) ) ;
#55 = LOCAL_TIME ( 16, 48, 1.000000000000000000, #50 ) ;
#56 = ORIENTED_EDGE ( 'NONE', *, *, #66, .F. ) ;
#57 = VECTOR ( 'NONE', #99, 1000.000000000000000 ) ;
#58 = AXIS2_PLACEMENT_3D ( 'NONE', #212, #230, #219 ) ;
#59 = CARTESIAN_POINT ( 'NONE',  ( 25.15259031253506400, 3.080303921651079600E-015, 1.513198693418649200 ) ) ;
#60 = CARTESIAN_POINT ( 'NONE',  ( -3.080303921651102100E-015, -25.15259031253524900, -1.513198693418593700 ) ) ;
#61 = DIRECTION ( 'NONE',  ( -0.0000000000000000000, -0.0000000000000000000, 1.000000000000000000 ) ) ;
#62 = AXIS2_PLACEMENT_3D ( 'NONE', #341, #61, #217 ) ;
#63 = LINE ( 'NONE', #282, #118 ) ;
#64 = AXIS2_PLACEMENT_3D ( 'NONE', #173, #166, #52 ) ;
#65 = CARTESIAN_POINT ( 'NONE',  ( 0.0000000000000000000, 0.0000000000000000000, 179.7500000000000000 ) ) ;
#66 = EDGE_CURVE ( 'NONE', #295, #23, #159, .T. ) ;
#67 = ORIENTED_EDGE ( 'NONE', *, *, #80, .F. ) ;
#68 = SHAPE_DEFINITION_REPRESENTATION ( #299, #323 ) ;
#69 = ADVANCED_FACE ( 'NONE', ( #10 ), #25, .T. ) ;
#70 = AXIS2_PLACEMENT_3D ( 'NONE', #363, #3, #148 ) ;
#71 = DIRECTION ( 'NONE',  ( -0.6562020214051109700, 0.0000000000000000000, -0.7545852550267904100 ) ) ;
#72 = APPLICATION_CONTEXT ( 'configuration controlled 3d designs of mechanical parts and assemblies' ) ;
#73 = EDGE_CURVE ( 'NONE', #271, #334, #36, .T. ) ;
#74 = UNCERTAINTY_MEASURE_WITH_UNIT (LENGTH_MEASURE( 1.000000000000000100E-005 ), #1, 'distance_accuracy_value', 'NONE');
#75 = VERTEX_POINT ( 'NONE', #13 ) ;
#76 = CARTESIAN_POINT ( 'NONE',  ( 0.0000000000000000000, 0.0000000000000000000, -1.228695299613058500 ) ) ;
#77 = EDGE_CURVE ( 'NONE', #367, #134, #309, .T. ) ;
#78 = PERSON ( 'UNSPECIFIED', 'UNSPECIFIED', 'UNSPECIFIED', ('UNSPECIFIED'), ('UNSPECIFIED'), ('UNSPECIFIED') ) ;
#79 = CARTESIAN_POINT ( 'NONE',  ( 0.0000000000000000000, 0.0000000000000000000, 179.7500000000000000 ) ) ;
#80 = EDGE_CURVE ( 'NONE', #244, #271, #89, .T. ) ;
#81 = APPROVAL_STATUS ( 'not_yet_approved' ) ;
#82 = EDGE_LOOP ( 'NONE', ( #272, #105, #138, #179 ) ) ;
#83 = DIRECTION ( 'NONE',  ( 1.000000000000000000, 0.0000000000000000000, 0.0000000000000000000 ) ) ;
#84 = DIRECTION ( 'NONE',  ( 0.6562020214051321700, 0.0000000000000000000, 0.7545852550267719800 ) ) ;
#85 = CARTESIAN_POINT ( 'NONE',  ( -25.15259031253506400, 0.0000000000000000000, 1.513198693418621500 ) ) ;
#86 = COORDINATED_UNIVERSAL_TIME_OFFSET ( 5, 0, .BEHIND. ) ;
#87 = PRODUCT_DEFINITION ( 'UNKNOWN', '', #152, #31 ) ;
#88 = DIRECTION ( 'NONE',  ( -0.0000000000000000000, -0.0000000000000000000, 1.000000000000000000 ) ) ;
#89 = CIRCLE ( 'NONE', #216, 25.15259031253506400 ) ;
#90 = APPROVAL_ROLE ( '' ) ;
#91 = APPROVAL_PERSON_ORGANIZATION ( #32, #120, #177 ) ;
#92 = ORIENTED_EDGE ( 'NONE', *, *, #317, .F. ) ;
#93 = AXIS2_PLACEMENT_3D ( 'NONE', #168, #194, #131 ) ;
#94 = ORIENTED_EDGE ( 'NONE', *, *, #317, .T. ) ;
#95 = CARTESIAN_POINT ( 'NONE',  ( 0.0000000000000000000, 0.0000000000000000000, -1.513198693418593700 ) ) ;
#96 = CC_DESIGN_PERSON_AND_ORGANIZATION_ASSIGNMENT ( #319, #356, ( #152 ) ) ;
#97 = ORIENTED_EDGE ( 'NONE', *, *, #102, .T. ) ;
#98 = AXIS2_PLACEMENT_3D ( 'NONE', #24, #37, #223 ) ;
#99 = DIRECTION ( 'NONE',  ( -0.0000000000000000000, -0.0000000000000000000, 1.000000000000000000 ) ) ;
#100 = PRODUCT ( '4335-E0W', '4335-E0W', '', ( #111 ) ) ;
#101 = CONICAL_SURFACE ( 'NONE', #269, 25.39999999999999900, 0.7157744757313924100 ) ;
#102 = EDGE_CURVE ( 'NONE', #284, #75, #321, .T. ) ;
#103 = CARTESIAN_POINT ( 'NONE',  ( 0.0000000000000000000, 0.0000000000000000000, -179.7500000000000000 ) ) ;
#104 = SECURITY_CLASSIFICATION_LEVEL ( 'unclassified' ) ;
#105 = ORIENTED_EDGE ( 'NONE', *, *, #15, .T. ) ;
#106 = SECURITY_CLASSIFICATION ( '', '', #104 ) ;
#107 = DATE_TIME_ROLE ( 'classification_date' ) ;
#108 = CARTESIAN_POINT ( 'NONE',  ( 0.0000000000000000000, 0.0000000000000000000, -1.228695299613058500 ) ) ;
#109 = ADVANCED_FACE ( 'NONE', ( #7 ), #254, .T. ) ;
#110 = EDGE_CURVE ( 'NONE', #244, #75, #44, .T. ) ;
#111 = MECHANICAL_CONTEXT ( 'NONE', #72, 'mechanical' ) ;
#112 = DATE_AND_TIME ( #133, #221 ) ;
#113 = VERTEX_POINT ( 'NONE', #210 ) ;
#114 = AXIS2_PLACEMENT_3D ( 'NONE', #95, #126, #83 ) ;
#115 = DIRECTION ( 'NONE',  ( -1.000000000000000000, 0.0000000000000000000, 0.0000000000000000000 ) ) ;
#116 = DIRECTION ( 'NONE',  ( -1.224646799147353200E-016, -1.000000000000000000, 0.0000000000000000000 ) ) ;
#117 = CARTESIAN_POINT ( 'NONE',  ( 0.0000000000000000000, 25.15259031253515300, 1.513198693418621500 ) ) ;
#118 = VECTOR ( 'NONE', #291, 1000.000000000000000 ) ;
#119 = DIRECTION ( 'NONE',  ( 0.0000000000000000000, 0.0000000000000000000, -1.000000000000000000 ) ) ;
#120 = APPROVAL ( #29, 'UNSPECIFIED' ) ;
#121 = APPROVAL_STATUS ( 'not_yet_approved' ) ;
#122 = AXIS2_PLACEMENT_3D ( 'NONE', #347, #360, #30 ) ;
#123 = CARTESIAN_POINT ( 'NONE',  ( 0.0000000000000000000, 0.0000000000000000000, 1.228695299613086200 ) ) ;
#124 = ORIENTED_EDGE ( 'NONE', *, *, #203, .F. ) ;
#125 = PERSON_AND_ORGANIZATION ( #78, #182 ) ;
#126 = DIRECTION ( 'NONE',  ( 0.0000000000000000000, 0.0000000000000000000, -1.000000000000000000 ) ) ;
#127 = AXIS2_PLACEMENT_3D ( 'NONE', #184, #119, #322 ) ;
#128 = CALENDAR_DATE ( 2015, 17, 6 ) ;
#129 = DIRECTION ( 'NONE',  ( 1.000000000000000000, 0.0000000000000000000, 0.0000000000000000000 ) ) ;
#130 =( GEOMETRIC_REPRESENTATION_CONTEXT ( 3 ) GLOBAL_UNCERTAINTY_ASSIGNED_CONTEXT ( ( #74 ) ) GLOBAL_UNIT_ASSIGNED_CONTEXT ( ( #1, #340, #46 ) ) REPRESENTATION_CONTEXT ( 'NONE', 'WORKASPACE' ) );
#131 = DIRECTION ( 'NONE',  ( 0.0000000000000000000, 1.000000000000000000, 0.0000000000000000000 ) ) ;
#132 = ORIENTED_EDGE ( 'NONE', *, *, #288, .F. ) ;
#133 = CALENDAR_DATE ( 2015, 17, 6 ) ;
#134 = VERTEX_POINT ( 'NONE', #312 ) ;
#135 = CIRCLE ( 'NONE', #70, 25.15259031253506400 ) ;
#136 = EDGE_CURVE ( 'NONE', #134, #113, #190, .T. ) ;
#137 = ADVANCED_FACE ( 'NONE', ( #346 ), #158, .T. ) ;
#138 = ORIENTED_EDGE ( 'NONE', *, *, #306, .T. ) ;
#139 = DIRECTION ( 'NONE',  ( 0.0000000000000000000, 1.000000000000000000, 0.0000000000000000000 ) ) ;
#140 = CARTESIAN_POINT ( 'NONE',  ( 0.0000000000000000000, 0.0000000000000000000, 179.7500000000000000 ) ) ;
#141 = AXIS2_PLACEMENT_3D ( 'NONE', #140, #129, #359 ) ;
#142 = CARTESIAN_POINT ( 'NONE',  ( 0.0000000000000000000, 0.0000000000000000000, -1.513198693418593700 ) ) ;
#143 = DIRECTION ( 'NONE',  ( -1.000000000000000000, 0.0000000000000000000, 0.0000000000000000000 ) ) ;
#144 = DIRECTION ( 'NONE',  ( -0.0000000000000000000, -0.0000000000000000000, 1.000000000000000000 ) ) ;
#145 = ORIENTED_EDGE ( 'NONE', *, *, #110, .T. ) ;
#146 = DIRECTION ( 'NONE',  ( -1.224646799147353200E-016, -1.000000000000000000, 0.0000000000000000000 ) ) ;
#147 = CARTESIAN_POINT ( 'NONE',  ( 0.0000000000000000000, 0.0000000000000000000, 3.250000000000000400 ) ) ;
#148 = DIRECTION ( 'NONE',  ( -1.000000000000000000, 0.0000000000000000000, 0.0000000000000000000 ) ) ;
#149 = SPHERICAL_SURFACE ( 'NONE', #93, 183.0000000000000000 ) ;
#150 = DIRECTION ( 'NONE',  ( -0.6562020214051321700, 8.036157051078180500E-017, 0.7545852550267719800 ) ) ;
#151 = DIRECTION ( 'NONE',  ( -1.000000000000000000, 0.0000000000000000000, 0.0000000000000000000 ) ) ;
#152 = PRODUCT_DEFINITION_FORMATION_WITH_SPECIFIED_SOURCE ( 'ANY', '', #100, .NOT_KNOWN. ) ;
#153 = DIRECTION ( 'NONE',  ( 0.0000000000000000000, 0.0000000000000000000, -1.000000000000000000 ) ) ;
#154 = ORIENTED_EDGE ( 'NONE', *, *, #73, .F. ) ;
#155 = COORDINATED_UNIVERSAL_TIME_OFFSET ( 5, 0, .BEHIND. ) ;
#156 = CLOSED_SHELL ( 'NONE', ( #69, #215, #276, #109, #192, #343, #238, #137, #307, #6 ) ) ;
#157 = DIRECTION ( 'NONE',  ( -0.0000000000000000000, -0.0000000000000000000, 1.000000000000000000 ) ) ;
#158 = SPHERICAL_SURFACE ( 'NONE', #183, 183.0000000000000000 ) ;
#159 = CIRCLE ( 'NONE', #47, 183.0000000000000000 ) ;
#160 = DIRECTION ( 'NONE',  ( -0.0000000000000000000, -0.0000000000000000000, 1.000000000000000000 ) ) ;
#161 = FACE_OUTER_BOUND ( 'NONE', #170, .T. ) ;
#162 = DIRECTION ( 'NONE',  ( 1.000000000000000000, 0.0000000000000000000, 0.0000000000000000000 ) ) ;
#163 = SPHERICAL_SURFACE ( 'NONE', #201, 183.0000000000000000 ) ;
#164 = AXIS2_PLACEMENT_3D ( 'NONE', #332, #198, #231 ) ;
#165 = PERSON_AND_ORGANIZATION ( #78, #182 ) ;
#166 = DIRECTION ( 'NONE',  ( -0.0000000000000000000, -0.0000000000000000000, 1.000000000000000000 ) ) ;
#167 = EDGE_LOOP ( 'NONE', ( #268, #197, #97, #349 ) ) ;
#168 = CARTESIAN_POINT ( 'NONE',  ( 0.0000000000000000000, 0.0000000000000000000, 179.7500000000000000 ) ) ;
#169 = DIRECTION ( 'NONE',  ( 0.0000000000000000000, 1.000000000000000000, 0.0000000000000000000 ) ) ;
#170 = EDGE_LOOP ( 'NONE', ( #283, #205, #248, #94, #227 ) ) ;
#171 = LINE ( 'NONE', #188, #57 ) ;
#172 = CARTESIAN_POINT ( 'NONE',  ( 0.0000000000000000000, 0.0000000000000000000, 0.0000000000000000000 ) ) ;
#173 = CARTESIAN_POINT ( 'NONE',  ( 0.0000000000000000000, 0.0000000000000000000, 1.513198693418621500 ) ) ;
#174 = CC_DESIGN_PERSON_AND_ORGANIZATION_ASSIGNMENT ( #165, #48, ( #100 ) ) ;
#175 = DIRECTION ( 'NONE',  ( 1.000000000000000000, -0.0000000000000000000, 0.0000000000000000000 ) ) ;
#176 = VECTOR ( 'NONE', #26, 1000.000000000000000 ) ;
#177 = APPROVAL_ROLE ( '' ) ;
#178 = CARTESIAN_POINT ( 'NONE',  ( 25.39999999999999900, 0.0000000000000000000, -1.228695299613058500 ) ) ;
#179 = ORIENTED_EDGE ( 'NONE', *, *, #252, .T. ) ;
#180 = CALENDAR_DATE ( 2015, 17, 6 ) ;
#181 = EDGE_LOOP ( 'NONE', ( #67, #145, #51, #92, #154 ) ) ;
#182 = ORGANIZATION ( 'UNSPECIFIED', 'UNSPECIFIED', '' ) ;
#183 = AXIS2_PLACEMENT_3D ( 'NONE', #65, #151, #139 ) ;
#184 = CARTESIAN_POINT ( 'NONE',  ( 0.0000000000000000000, 0.0000000000000000000, 1.228695299613086200 ) ) ;
#185 = ORIENTED_EDGE ( 'NONE', *, *, #288, .T. ) ;
#186 = CARTESIAN_POINT ( 'NONE',  ( 0.0000000000000000000, 0.0000000000000000000, 1.513198693418621500 ) ) ;
#187 = AXIS2_PLACEMENT_3D ( 'NONE', #259, #196, #146 ) ;
#188 = CARTESIAN_POINT ( 'NONE',  ( 25.39999999999999900, 0.0000000000000000000, 3.250000000000000400 ) ) ;
#189 = CIRCLE ( 'NONE', #255, 25.39999999999999900 ) ;
#190 = CIRCLE ( 'NONE', #263, 25.15259031253499000 ) ;
#191 = APPROVAL_DATE_TIME ( #225, #320 ) ;
#192 = ADVANCED_FACE ( 'NONE', ( #275 ), #245, .T. ) ;
#193 = CARTESIAN_POINT ( 'NONE',  ( 0.0000000000000000000, 0.0000000000000000000, -179.7500000000000000 ) ) ;
#194 = DIRECTION ( 'NONE',  ( -1.000000000000000000, 0.0000000000000000000, 0.0000000000000000000 ) ) ;
#195 = FACE_OUTER_BOUND ( 'NONE', #326, .T. ) ;
#196 = DIRECTION ( 'NONE',  ( -1.000000000000000000, 1.224646799147353200E-016, 0.0000000000000000000 ) ) ;
#197 = ORIENTED_EDGE ( 'NONE', *, *, #327, .T. ) ;
#198 = DIRECTION ( 'NONE',  ( -0.0000000000000000000, -0.0000000000000000000, 1.000000000000000000 ) ) ;
#199 = CARTESIAN_POINT ( 'NONE',  ( 0.0000000000000000000, 0.0000000000000000000, -1.513198693418593700 ) ) ;
#200 = ORIENTED_EDGE ( 'NONE', *, *, #66, .T. ) ;
#201 = AXIS2_PLACEMENT_3D ( 'NONE', #17, #240, #169 ) ;
#202 = VECTOR ( 'NONE', #71, 1000.000000000000000 ) ;
#203 = EDGE_CURVE ( 'NONE', #113, #23, #211, .T. ) ;
#204 = ORIENTED_EDGE ( 'NONE', *, *, #203, .T. ) ;
#205 = ORIENTED_EDGE ( 'NONE', *, *, #292, .F. ) ;
#206 = EDGE_CURVE ( 'NONE', #271, #40, #14, .T. ) ;
#207 = ORIENTED_EDGE ( 'NONE', *, *, #301, .T. ) ;
#208 = CIRCLE ( 'NONE', #114, 25.15259031253499000 ) ;
#209 = AXIS2_PLACEMENT_3D ( 'NONE', #172, #355, #162 ) ;
#210 = CARTESIAN_POINT ( 'NONE',  ( 25.15259031253499000, 0.0000000000000000000, -1.513198693418593700 ) ) ;
#211 = CIRCLE ( 'NONE', #324, 25.15259031253499000 ) ;
#212 = CARTESIAN_POINT ( 'NONE',  ( 0.0000000000000000000, 0.0000000000000000000, -1.513198693418593700 ) ) ;
#213 = CARTESIAN_POINT ( 'NONE',  ( -25.15259031253499000, 3.095453395742673500E-015, -1.513198693418593700 ) ) ;
#214 = DATE_AND_TIME ( #318, #296 ) ;
#215 = ADVANCED_FACE ( 'NONE', ( #195 ), #101, .T. ) ;
#216 = AXIS2_PLACEMENT_3D ( 'NONE', #186, #251, #115 ) ;
#217 = DIRECTION ( 'NONE',  ( 1.000000000000000000, 0.0000000000000000000, 0.0000000000000000000 ) ) ;
#218 = DIRECTION ( 'NONE',  ( 1.000000000000000000, 0.0000000000000000000, 0.0000000000000000000 ) ) ;
#219 = DIRECTION ( 'NONE',  ( 1.000000000000000000, 0.0000000000000000000, 0.0000000000000000000 ) ) ;
#220 = EDGE_CURVE ( 'NONE', #334, #348, #266, .T. ) ;
#221 = LOCAL_TIME ( 16, 48, 1.000000000000000000, #86 ) ;
#222 = VERTEX_POINT ( 'NONE', #300 ) ;
#223 = DIRECTION ( 'NONE',  ( -1.000000000000000000, 0.0000000000000000000, 0.0000000000000000000 ) ) ;
#224 = PRODUCT_RELATED_PRODUCT_CATEGORY ( 'detail', '', ( #100 ) ) ;
#225 = DATE_AND_TIME ( #239, #247 ) ;
#226 = APPROVAL_PERSON_ORGANIZATION ( #329, #336, #339 ) ;
#227 = ORIENTED_EDGE ( 'NONE', *, *, #252, .F. ) ;
#228 = DIRECTION ( 'NONE',  ( 1.000000000000000000, 0.0000000000000000000, 0.0000000000000000000 ) ) ;
#229 = DIRECTION ( 'NONE',  ( 1.000000000000000000, 0.0000000000000000000, 0.0000000000000000000 ) ) ;
#230 = DIRECTION ( 'NONE',  ( 0.0000000000000000000, 0.0000000000000000000, -1.000000000000000000 ) ) ;
#231 = DIRECTION ( 'NONE',  ( 1.000000000000000000, 0.0000000000000000000, 0.0000000000000000000 ) ) ;
#232 = ORIENTED_EDGE ( 'NONE', *, *, #220, .T. ) ;
#233 = APPLICATION_PROTOCOL_DEFINITION ( 'international standard', 'config_control_design', 1994, #351 ) ;
#234 = ORIENTED_EDGE ( 'NONE', *, *, #15, .F. ) ;
#235 = CC_DESIGN_DATE_AND_TIME_ASSIGNMENT ( #214, #107, ( #106 ) ) ;
#236 = EDGE_CURVE ( 'NONE', #367, #222, #314, .T. ) ;
#237 = DIRECTION ( 'NONE',  ( -1.000000000000000000, 0.0000000000000000000, 0.0000000000000000000 ) ) ;
#238 = ADVANCED_FACE ( 'NONE', ( #261 ), #33, .T. ) ;
#239 = CALENDAR_DATE ( 2015, 17, 6 ) ;
#240 = DIRECTION ( 'NONE',  ( -1.000000000000000000, 0.0000000000000000000, 0.0000000000000000000 ) ) ;
#241 = ORIENTED_EDGE ( 'NONE', *, *, #311, .F. ) ;
#242 = DIRECTION ( 'NONE',  ( 0.0000000000000000000, 0.0000000000000000000, -1.000000000000000000 ) ) ;
#243 = CARTESIAN_POINT ( 'NONE',  ( -3.080303921651089900E-015, -25.15259031253515300, 1.513198693418621500 ) ) ;
#244 = VERTEX_POINT ( 'NONE', #335 ) ;
#245 = SPHERICAL_SURFACE ( 'NONE', #27, 183.0000000000000000 ) ;
#246 = EDGE_CURVE ( 'NONE', #113, #19, #338, .T. ) ;
#247 = LOCAL_TIME ( 16, 48, 1.000000000000000000, #258 ) ;
#248 = ORIENTED_EDGE ( 'NONE', *, *, #220, .F. ) ;
#249 = APPLICATION_PROTOCOL_DEFINITION ( 'international standard', 'config_control_design', 1994, #72 ) ;
#250 = CARTESIAN_POINT ( 'NONE',  ( 0.0000000000000000000, 1.120551821219828200E-014, -3.250000000000002700 ) ) ;
#251 = DIRECTION ( 'NONE',  ( -0.0000000000000000000, -0.0000000000000000000, 1.000000000000000000 ) ) ;
#252 = EDGE_CURVE ( 'NONE', #75, #284, #281, .T. ) ;
#253 = PERSON_AND_ORGANIZATION_ROLE ( 'creator' ) ;
#254 = CYLINDRICAL_SURFACE ( 'NONE', #164, 25.39999999999999900 ) ;
#255 = AXIS2_PLACEMENT_3D ( 'NONE', #76, #160, #218 ) ;
#256 = APPROVAL_DATE_TIME ( #286, #120 ) ;
#257 = EDGE_LOOP ( 'NONE', ( #280, #232, #12, #260 ) ) ;
#258 = COORDINATED_UNIVERSAL_TIME_OFFSET ( 5, 0, .BEHIND. ) ;
#259 = CARTESIAN_POINT ( 'NONE',  ( 0.0000000000000000000, 0.0000000000000000000, -179.7500000000000000 ) ) ;
#260 = ORIENTED_EDGE ( 'NONE', *, *, #206, .F. ) ;
#261 = FACE_OUTER_BOUND ( 'NONE', #82, .T. ) ;
#262 = PERSON_AND_ORGANIZATION_ROLE ( 'design_supplier' ) ;
#263 = AXIS2_PLACEMENT_3D ( 'NONE', #199, #2, #228 ) ;
#264 = ORIENTED_EDGE ( 'NONE', *, *, #292, .T. ) ;
#265 = ORIENTED_EDGE ( 'NONE', *, *, #246, .T. ) ;
#266 = CIRCLE ( 'NONE', #64, 25.15259031253506400 ) ;
#267 = DIRECTION ( 'NONE',  ( 1.000000000000000000, 0.0000000000000000000, 0.0000000000000000000 ) ) ;
#268 = ORIENTED_EDGE ( 'NONE', *, *, #298, .T. ) ;
#269 = AXIS2_PLACEMENT_3D ( 'NONE', #41, #157, #229 ) ;
#270 = APPROVAL_PERSON_ORGANIZATION ( #333, #320, #90 ) ;
#271 = VERTEX_POINT ( 'NONE', #117 ) ;
#272 = ORIENTED_EDGE ( 'NONE', *, *, #327, .F. ) ;
#273 = PERSON_AND_ORGANIZATION_ROLE ( 'classification_officer' ) ;
#274 = EDGE_LOOP ( 'NONE', ( #56, #185, #315, #204 ) ) ;
#275 = FACE_OUTER_BOUND ( 'NONE', #257, .T. ) ;
#276 = ADVANCED_FACE ( 'NONE', ( #345 ), #149, .T. ) ;
#277 = AXIS2_PLACEMENT_3D ( 'NONE', #108, #144, #325 ) ;
#278 = CC_DESIGN_SECURITY_CLASSIFICATION ( #106, ( #152 ) ) ;
#279 = FACE_OUTER_BOUND ( 'NONE', #289, .T. ) ;
#280 = ORIENTED_EDGE ( 'NONE', *, *, #73, .T. ) ;
#281 = CIRCLE ( 'NONE', #127, 25.39999999999999900 ) ;
#282 = CARTESIAN_POINT ( 'NONE',  ( -25.39999999999999900, 3.110602869834276900E-015, 3.250000000000000400 ) ) ;
#283 = ORIENTED_EDGE ( 'NONE', *, *, #110, .F. ) ;
#284 = VERTEX_POINT ( 'NONE', #313 ) ;
#285 = AXIS2_PLACEMENT_3D ( 'NONE', #123, #242, #237 ) ;
#286 = DATE_AND_TIME ( #180, #55 ) ;
#287 = CC_DESIGN_PERSON_AND_ORGANIZATION_ASSIGNMENT ( #18, #273, ( #106 ) ) ;
#288 = EDGE_CURVE ( 'NONE', #295, #134, #290, .T. ) ;
#289 = EDGE_LOOP ( 'NONE', ( #241, #264, #353, #304 ) ) ;
#290 = CIRCLE ( 'NONE', #141, 183.0000000000000000 ) ;
#291 = DIRECTION ( 'NONE',  ( -0.0000000000000000000, -0.0000000000000000000, 1.000000000000000000 ) ) ;
#292 = EDGE_CURVE ( 'NONE', #348, #244, #135, .T. ) ;
#293 = CC_DESIGN_DATE_AND_TIME_ASSIGNMENT ( #112, #294, ( #87 ) ) ;
#294 = DATE_TIME_ROLE ( 'creation_date' ) ;
#295 = VERTEX_POINT ( 'NONE', #250 ) ;
#296 = LOCAL_TIME ( 16, 48, 1.000000000000000000, #303 ) ;
#297 = ORIENTED_EDGE ( 'NONE', *, *, #236, .F. ) ;
#298 = EDGE_CURVE ( 'NONE', #19, #222, #316, .T. ) ;
#299 = PRODUCT_DEFINITION_SHAPE ( 'NONE', 'NONE',  #87 ) ;
#300 = CARTESIAN_POINT ( 'NONE',  ( -25.39999999999999900, 3.110602869834276900E-015, -1.228695299613058500 ) ) ;
#301 = EDGE_CURVE ( 'NONE', #23, #367, #208, .T. ) ;
#302 = LINE ( 'NONE', #305, #202 ) ;
#303 = COORDINATED_UNIVERSAL_TIME_OFFSET ( 5, 0, .BEHIND. ) ;
#304 = ORIENTED_EDGE ( 'NONE', *, *, #206, .T. ) ;
#305 = CARTESIAN_POINT ( 'NONE',  ( -25.15259031253506400, 0.0000000000000000000, 1.513198693418649200 ) ) ;
#306 = EDGE_CURVE ( 'NONE', #19, #75, #171, .T. ) ;
#307 = ADVANCED_FACE ( 'NONE', ( #331 ), #28, .T. ) ;
#308 = ORIENTED_EDGE ( 'NONE', *, *, #298, .F. ) ;
#309 = CIRCLE ( 'NONE', #58, 25.15259031253499000 ) ;
#310 = ORIENTED_EDGE ( 'NONE', *, *, #77, .F. ) ;
#311 = EDGE_CURVE ( 'NONE', #348, #40, #20, .T. ) ;
#312 = CARTESIAN_POINT ( 'NONE',  ( 0.0000000000000000000, 25.15259031253524900, -1.513198693418593700 ) ) ;
#313 = CARTESIAN_POINT ( 'NONE',  ( -25.39999999999999900, 3.110602869834276900E-015, 1.228695299613086200 ) ) ;
#314 = LINE ( 'NONE', #38, #49 ) ;
#315 = ORIENTED_EDGE ( 'NONE', *, *, #136, .T. ) ;
#316 = CIRCLE ( 'NONE', #277, 25.39999999999999900 ) ;
#317 = EDGE_CURVE ( 'NONE', #334, #284, #302, .T. ) ;
#318 = CALENDAR_DATE ( 2015, 17, 6 ) ;
#319 = PERSON_AND_ORGANIZATION ( #78, #182 ) ;
#320 = APPROVAL ( #81, 'UNSPECIFIED' ) ;
#321 = CIRCLE ( 'NONE', #285, 25.39999999999999900 ) ;
#322 = DIRECTION ( 'NONE',  ( -1.000000000000000000, 0.0000000000000000000, 0.0000000000000000000 ) ) ;
#323 = ADVANCED_BREP_SHAPE_REPRESENTATION ( '4335-E0W', ( #53, #209 ), #130 ) ;
#324 = AXIS2_PLACEMENT_3D ( 'NONE', #142, #45, #267 ) ;
#325 = DIRECTION ( 'NONE',  ( 1.000000000000000000, 0.0000000000000000000, 0.0000000000000000000 ) ) ;
#326 = EDGE_LOOP ( 'NONE', ( #310, #21, #308, #358, #337 ) ) ;
#327 = EDGE_CURVE ( 'NONE', #222, #284, #63, .T. ) ;
#328 = PERSON_AND_ORGANIZATION ( #78, #182 ) ;
#329 = PERSON_AND_ORGANIZATION ( #78, #182 ) ;
#330 = EDGE_LOOP ( 'NONE', ( #297, #361, #124, #265, #234 ) ) ;
#331 = FACE_OUTER_BOUND ( 'NONE', #330, .T. ) ;
#332 = CARTESIAN_POINT ( 'NONE',  ( 0.0000000000000000000, 0.0000000000000000000, 3.250000000000000400 ) ) ;
#333 = PERSON_AND_ORGANIZATION ( #78, #182 ) ;
#334 = VERTEX_POINT ( 'NONE', #85 ) ;
#335 = CARTESIAN_POINT ( 'NONE',  ( 25.15259031253506400, 3.095453395742678200E-015, 1.513198693418621500 ) ) ;
#336 = APPROVAL ( #121, 'UNSPECIFIED' ) ;
#337 = ORIENTED_EDGE ( 'NONE', *, *, #136, .F. ) ;
#338 = LINE ( 'NONE', #54, #354 ) ;
#339 = APPROVAL_ROLE ( '' ) ;
#340 =( NAMED_UNIT ( * ) PLANE_ANGLE_UNIT ( ) SI_UNIT ( $, .RADIAN. ) );
#341 = CARTESIAN_POINT ( 'NONE',  ( 0.0000000000000000000, 0.0000000000000000000, -1.228695299613058500 ) ) ;
#342 = AXIS2_PLACEMENT_3D ( 'NONE', #103, #175, #153 ) ;
#343 = ADVANCED_FACE ( 'NONE', ( #279 ), #163, .T. ) ;
#344 = DATE_AND_TIME ( #128, #366 ) ;
#345 = FACE_OUTER_BOUND ( 'NONE', #365, .T. ) ;
#346 = FACE_OUTER_BOUND ( 'NONE', #274, .T. ) ;
#347 = CARTESIAN_POINT ( 'NONE',  ( 0.0000000000000000000, 0.0000000000000000000, 1.513198693418649200 ) ) ;
#348 = VERTEX_POINT ( 'NONE', #243 ) ;
#349 = ORIENTED_EDGE ( 'NONE', *, *, #306, .F. ) ;
#350 = CARTESIAN_POINT ( 'NONE',  ( 0.0000000000000000000, 1.120551821219828200E-014, 3.250000000000002700 ) ) ;
#351 = APPLICATION_CONTEXT ( 'configuration controlled 3d designs of mechanical parts and assemblies' ) ;
#352 = CC_DESIGN_PERSON_AND_ORGANIZATION_ASSIGNMENT ( #125, #253, ( #87 ) ) ;
#353 = ORIENTED_EDGE ( 'NONE', *, *, #80, .T. ) ;
#354 = VECTOR ( 'NONE', #84, 1000.000000000000000 ) ;
#355 = DIRECTION ( 'NONE',  ( 0.0000000000000000000, 0.0000000000000000000, 1.000000000000000000 ) ) ;
#356 = PERSON_AND_ORGANIZATION_ROLE ( 'creator' ) ;
#357 = APPROVAL_DATE_TIME ( #344, #336 ) ;
#358 = ORIENTED_EDGE ( 'NONE', *, *, #246, .F. ) ;
#359 = DIRECTION ( 'NONE',  ( 0.0000000000000000000, 0.0000000000000000000, -1.000000000000000000 ) ) ;
#360 = DIRECTION ( 'NONE',  ( 0.0000000000000000000, 0.0000000000000000000, -1.000000000000000000 ) ) ;
#361 = ORIENTED_EDGE ( 'NONE', *, *, #301, .F. ) ;
#362 = AXIS2_PLACEMENT_3D ( 'NONE', #364, #11, #8 ) ;
#363 = CARTESIAN_POINT ( 'NONE',  ( 0.0000000000000000000, 0.0000000000000000000, 1.513198693418621500 ) ) ;
#364 = CARTESIAN_POINT ( 'NONE',  ( 0.0000000000000000000, 0.0000000000000000000, 1.513198693418621500 ) ) ;
#365 = EDGE_LOOP ( 'NONE', ( #132, #200, #207, #5 ) ) ;
#366 = LOCAL_TIME ( 16, 48, 1.000000000000000000, #155 ) ;
#367 = VERTEX_POINT ( 'NONE', #213 ) ;
ENDSEC;
END-ISO-10303-21;
