ISO-10303-21;
HEADER;
FILE_DESCRIPTION (( 'STEP AP203' ),
    '1' );
FILE_NAME ('Web Model 46609_46611.step',
    '2017-04-10T17:57:41',
    ( '' ),
    ( '' ),
    'SwSTEP 2.0',
    'SolidWorks 2016',
    '' );
FILE_SCHEMA (( 'CONFIG_CONTROL_DESIGN' ));
ENDSEC;

DATA;
#1 = DIRECTION ( 'NONE',  ( -0.0000000000000000000, -0.0000000000000000000, -1.000000000000000000 ) ) ;
#2 = PLANE ( 'NONE',  #66 ) ;
#3 = CC_DESIGN_PERSON_AND_ORGANIZATION_ASSIGNMENT ( #220, #47, ( #133 ) ) ;
#4 = PLANE ( 'NONE',  #123 ) ;
#5 = MANIFOLD_SOLID_BREP ( 'Boss-Extrude1', #140 ) ;
#6 = APPROVAL_ROLE ( '' ) ;
#7 = APPLICATION_CONTEXT ( 'configuration controlled 3d designs of mechanical parts and assemblies' ) ;
#8 = DIRECTION ( 'NONE',  ( -0.0000000000000000000, -0.0000000000000000000, -1.000000000000000000 ) ) ;
#9 = CARTESIAN_POINT ( 'NONE',  ( 17.50000000000000000, -17.50000000000000000, 0.5000000000000000000 ) ) ;
#10 = VECTOR ( 'NONE', #155, 1000.000000000000000 ) ;
#11 = CARTESIAN_POINT ( 'NONE',  ( -17.50000000000000000, -17.50000000000000000, -0.5000000000000000000 ) ) ;
#12 = DATE_AND_TIME ( #199, #77 ) ;
#13 = EDGE_LOOP ( 'NONE', ( #65, #221, #216, #210 ) ) ;
#14 = ORIENTED_EDGE ( 'NONE', *, *, #222, .T. ) ;
#15 = LINE ( 'NONE', #124, #59 ) ;
#16 = DIRECTION ( 'NONE',  ( 0.0000000000000000000, -1.000000000000000000, 0.0000000000000000000 ) ) ;
#17 = CARTESIAN_POINT ( 'NONE',  ( -17.50000000000000000, 17.50000000000000000, -0.5000000000000000000 ) ) ;
#18 = EDGE_LOOP ( 'NONE', ( #237, #196, #20, #14 ) ) ;
#19 = DIRECTION ( 'NONE',  ( 0.0000000000000000000, -1.000000000000000000, 0.0000000000000000000 ) ) ;
#20 = ORIENTED_EDGE ( 'NONE', *, *, #126, .F. ) ;
#21 = LINE ( 'NONE', #138, #176 ) ;
#22 = PLANE ( 'NONE',  #183 ) ;
#23 = DATE_TIME_ROLE ( 'classification_date' ) ;
#24 = DIRECTION ( 'NONE',  ( 1.000000000000000000, 0.0000000000000000000, 0.0000000000000000000 ) ) ;
#25 = SECURITY_CLASSIFICATION_LEVEL ( 'unclassified' ) ;
#26 = CC_DESIGN_APPROVAL ( #32, ( #133 ) ) ;
#27 = CARTESIAN_POINT ( 'NONE',  ( -17.50000000000000000, -17.50000000000000000, -0.5000000000000000000 ) ) ;
#28 = ORIENTED_EDGE ( 'NONE', *, *, #215, .F. ) ;
#29 = APPROVAL_STATUS ( 'not_yet_approved' ) ;
#30 = DIRECTION ( 'NONE',  ( 0.0000000000000000000, 0.0000000000000000000, 1.000000000000000000 ) ) ;
#31 = APPROVAL_STATUS ( 'not_yet_approved' ) ;
#32 = APPROVAL ( #31, 'UNSPECIFIED' ) ;
#33 = ADVANCED_FACE ( 'NONE', ( #207 ), #146, .T. ) ;
#34 = PERSON_AND_ORGANIZATION_ROLE ( 'classification_officer' ) ;
#35 = DESIGN_CONTEXT ( 'detailed design', #7, 'design' ) ;
#36 = DIRECTION ( 'NONE',  ( 1.000000000000000000, 0.0000000000000000000, 0.0000000000000000000 ) ) ;
#37 = UNCERTAINTY_MEASURE_WITH_UNIT (LENGTH_MEASURE( 1.000000000000000100E-005 ), #95, 'distance_accuracy_value', 'NONE');
#38 = ORIENTED_EDGE ( 'NONE', *, *, #149, .F. ) ;
#39 = APPROVAL_PERSON_ORGANIZATION ( #81, #32, #90 ) ;
#40 = FACE_OUTER_BOUND ( 'NONE', #87, .T. ) ;
#41 = DIRECTION ( 'NONE',  ( -0.0000000000000000000, 1.000000000000000000, -0.0000000000000000000 ) ) ;
#42 = EDGE_CURVE ( 'NONE', #218, #203, #116, .T. ) ;
#43 = DATE_AND_TIME ( #194, #88 ) ;
#44 = DIRECTION ( 'NONE',  ( -0.0000000000000000000, 1.000000000000000000, -0.0000000000000000000 ) ) ;
#45 = APPLICATION_PROTOCOL_DEFINITION ( 'international standard', 'config_control_design', 1994, #76 ) ;
#46 = CC_DESIGN_PERSON_AND_ORGANIZATION_ASSIGNMENT ( #96, #165, ( #133 ) ) ;
#47 = PERSON_AND_ORGANIZATION_ROLE ( 'creator' ) ;
#48 = DIRECTION ( 'NONE',  ( 1.000000000000000000, 0.0000000000000000000, -0.0000000000000000000 ) ) ;
#49 = LINE ( 'NONE', #17, #147 ) ;
#50 = PERSON_AND_ORGANIZATION_ROLE ( 'creator' ) ;
#51 = VERTEX_POINT ( 'NONE', #9 ) ;
#52 = ORIENTED_EDGE ( 'NONE', *, *, #149, .T. ) ;
#53 = VECTOR ( 'NONE', #44, 1000.000000000000000 ) ;
#54 = PRODUCT_DEFINITION ( 'UNKNOWN', '', #133, #35 ) ;
#55 = VECTOR ( 'NONE', #24, 1000.000000000000000 ) ;
#56 = VECTOR ( 'NONE', #211, 1000.000000000000000 ) ;
#57 = CARTESIAN_POINT ( 'NONE',  ( 17.50000000000000000, -17.50000000000000000, -0.5000000000000000000 ) ) ;
#58 = CARTESIAN_POINT ( 'NONE',  ( -17.50000000000000000, -17.50000000000000000, 0.5000000000000000000 ) ) ;
#59 = VECTOR ( 'NONE', #41, 1000.000000000000000 ) ;
#60 = FACE_OUTER_BOUND ( 'NONE', #127, .T. ) ;
#61 =( NAMED_UNIT ( * ) PLANE_ANGLE_UNIT ( ) SI_UNIT ( $, .RADIAN. ) );
#62 = ORIENTED_EDGE ( 'NONE', *, *, #219, .T. ) ;
#63 = CARTESIAN_POINT ( 'NONE',  ( -17.50000000000000000, 17.50000000000000000, -0.5000000000000000000 ) ) ;
#64 = VERTEX_POINT ( 'NONE', #172 ) ;
#65 = ORIENTED_EDGE ( 'NONE', *, *, #236, .F. ) ;
#66 = AXIS2_PLACEMENT_3D ( 'NONE', #120, #150, #137 ) ;
#67 = DATE_TIME_ROLE ( 'creation_date' ) ;
#68 = CARTESIAN_POINT ( 'NONE',  ( -17.50000000000000000, -17.50000000000000000, 0.5000000000000000000 ) ) ;
#69 = PERSON_AND_ORGANIZATION ( #187, #113 ) ;
#70 = CARTESIAN_POINT ( 'NONE',  ( 17.50000000000000000, 17.50000000000000000, 0.5000000000000000000 ) ) ;
#71 = APPROVAL_PERSON_ORGANIZATION ( #171, #191, #122 ) ;
#72 = MECHANICAL_CONTEXT ( 'NONE', #76, 'mechanical' ) ;
#73 = DIRECTION ( 'NONE',  ( -0.0000000000000000000, 0.0000000000000000000, -1.000000000000000000 ) ) ;
#74 = ADVANCED_FACE ( 'NONE', ( #60 ), #177, .F. ) ;
#75 = ORIENTED_EDGE ( 'NONE', *, *, #213, .T. ) ;
#76 = APPLICATION_CONTEXT ( 'configuration controlled 3d designs of mechanical parts and assemblies' ) ;
#77 = LOCAL_TIME ( 13, 57, 41.00000000000000000, #226 ) ;
#78 = CARTESIAN_POINT ( 'NONE',  ( -17.50000000000000000, 17.50000000000000000, 0.5000000000000000000 ) ) ;
#79 = APPLICATION_PROTOCOL_DEFINITION ( 'international standard', 'config_control_design', 1994, #7 ) ;
#80 = CC_DESIGN_PERSON_AND_ORGANIZATION_ASSIGNMENT ( #174, #50, ( #54 ) ) ;
#81 = PERSON_AND_ORGANIZATION ( #187, #113 ) ;
#82 = ADVANCED_FACE ( 'NONE', ( #200 ), #22, .F. ) ;
#83 = DIRECTION ( 'NONE',  ( 1.000000000000000000, 0.0000000000000000000, 0.0000000000000000000 ) ) ;
#84 = FACE_OUTER_BOUND ( 'NONE', #217, .T. ) ;
#85 = CARTESIAN_POINT ( 'NONE',  ( 17.50000000000000000, -17.50000000000000000, 0.5000000000000000000 ) ) ;
#86 = CARTESIAN_POINT ( 'NONE',  ( 17.50000000000000000, 17.50000000000000000, -0.5000000000000000000 ) ) ;
#87 = EDGE_LOOP ( 'NONE', ( #98, #100, #28, #52 ) ) ;
#88 = LOCAL_TIME ( 13, 57, 41.00000000000000000, #132 ) ;
#89 = LINE ( 'NONE', #178, #145 ) ;
#90 = APPROVAL_ROLE ( '' ) ;
#91 = VERTEX_POINT ( 'NONE', #161 ) ;
#92 = VERTEX_POINT ( 'NONE', #57 ) ;
#93 = SECURITY_CLASSIFICATION ( '', '', #25 ) ;
#94 = CARTESIAN_POINT ( 'NONE',  ( -17.50000000000000000, 17.50000000000000000, 0.5000000000000000000 ) ) ;
#95 =( LENGTH_UNIT ( ) NAMED_UNIT ( * ) SI_UNIT ( .MILLI., .METRE. ) );
#96 = PERSON_AND_ORGANIZATION ( #187, #113 ) ;
#97 = CC_DESIGN_APPROVAL ( #191, ( #54 ) ) ;
#98 = ORIENTED_EDGE ( 'NONE', *, *, #236, .T. ) ;
#99 = ORIENTED_EDGE ( 'NONE', *, *, #215, .T. ) ;
#100 = ORIENTED_EDGE ( 'NONE', *, *, #222, .F. ) ;
#101 = VERTEX_POINT ( 'NONE', #70 ) ;
#102 = ADVANCED_FACE ( 'NONE', ( #198 ), #4, .F. ) ;
#103 = DIRECTION ( 'NONE',  ( 1.000000000000000000, 0.0000000000000000000, 0.0000000000000000000 ) ) ;
#104 = CARTESIAN_POINT ( 'NONE',  ( 0.0000000000000000000, 0.0000000000000000000, 0.0000000000000000000 ) ) ;
#105 = EDGE_CURVE ( 'NONE', #218, #51, #179, .T. ) ;
#106 = VECTOR ( 'NONE', #1, 1000.000000000000000 ) ;
#107 = CC_DESIGN_SECURITY_CLASSIFICATION ( #93, ( #133 ) ) ;
#108 = PRODUCT ( 'Web Model 46609_46611', 'Web Model 46609_46611', '', ( #72 ) ) ;
#109 = CC_DESIGN_DATE_AND_TIME_ASSIGNMENT ( #114, #67, ( #54 ) ) ;
#110 = PLANE ( 'NONE',  #189 ) ;
#111 = APPROVAL_DATE_TIME ( #162, #125 ) ;
#112 = ADVANCED_BREP_SHAPE_REPRESENTATION ( 'Web Model 46609_46611', ( #5, #152 ), #186 ) ;
#113 = ORGANIZATION ( 'UNSPECIFIED', 'UNSPECIFIED', '' ) ;
#114 = DATE_AND_TIME ( #232, #169 ) ;
#115 = ORIENTED_EDGE ( 'NONE', *, *, #130, .T. ) ;
#116 = LINE ( 'NONE', #228, #185 ) ;
#117 = DIRECTION ( 'NONE',  ( 0.0000000000000000000, -0.0000000000000000000, -1.000000000000000000 ) ) ;
#118 = CARTESIAN_POINT ( 'NONE',  ( -17.50000000000000000, -17.50000000000000000, 0.5000000000000000000 ) ) ;
#119 = APPROVAL_DATE_TIME ( #43, #191 ) ;
#120 = CARTESIAN_POINT ( 'NONE',  ( 17.50000000000000000, 17.50000000000000000, 0.5000000000000000000 ) ) ;
#121 = DIRECTION ( 'NONE',  ( 0.0000000000000000000, -0.0000000000000000000, 1.000000000000000000 ) ) ;
#122 = APPROVAL_ROLE ( '' ) ;
#123 = AXIS2_PLACEMENT_3D ( 'NONE', #190, #214, #103 ) ;
#124 = CARTESIAN_POINT ( 'NONE',  ( 17.50000000000000000, 17.50000000000000000, 0.5000000000000000000 ) ) ;
#125 = APPROVAL ( #29, 'UNSPECIFIED' ) ;
#126 = EDGE_CURVE ( 'NONE', #101, #151, #89, .T. ) ;
#127 = EDGE_LOOP ( 'NONE', ( #62, #166, #230, #115 ) ) ;
#128 = ADVANCED_FACE ( 'NONE', ( #40 ), #2, .F. ) ;
#129 = DIRECTION ( 'NONE',  ( -1.000000000000000000, -0.0000000000000000000, -0.0000000000000000000 ) ) ;
#130 = EDGE_CURVE ( 'NONE', #151, #91, #204, .T. ) ;
#131 = COORDINATED_UNIVERSAL_TIME_OFFSET ( 5, 0, .BEHIND. ) ;
#132 = COORDINATED_UNIVERSAL_TIME_OFFSET ( 5, 0, .BEHIND. ) ;
#133 = PRODUCT_DEFINITION_FORMATION_WITH_SPECIFIED_SOURCE ( 'ANY', '', #108, .NOT_KNOWN. ) ;
#134 = COORDINATED_UNIVERSAL_TIME_OFFSET ( 5, 0, .BEHIND. ) ;
#135 = LINE ( 'NONE', #63, #233 ) ;
#136 = LINE ( 'NONE', #144, #10 ) ;
#137 = DIRECTION ( 'NONE',  ( 0.0000000000000000000, 0.0000000000000000000, 1.000000000000000000 ) ) ;
#138 = CARTESIAN_POINT ( 'NONE',  ( 17.50000000000000000, 17.50000000000000000, 0.5000000000000000000 ) ) ;
#139 = PRODUCT_RELATED_PRODUCT_CATEGORY ( 'detail', '', ( #108 ) ) ;
#140 = CLOSED_SHELL ( 'NONE', ( #128, #82, #74, #223, #33, #102 ) ) ;
#141 = DIRECTION ( 'NONE',  ( -0.0000000000000000000, -0.0000000000000000000, -1.000000000000000000 ) ) ;
#142 = ORIENTED_EDGE ( 'NONE', *, *, #182, .T. ) ;
#143 = CC_DESIGN_APPROVAL ( #125, ( #93 ) ) ;
#144 = CARTESIAN_POINT ( 'NONE',  ( -17.50000000000000000, 17.50000000000000000, 0.5000000000000000000 ) ) ;
#145 = VECTOR ( 'NONE', #129, 1000.000000000000000 ) ;
#146 = PLANE ( 'NONE',  #164 ) ;
#147 = VECTOR ( 'NONE', #181, 1000.000000000000000 ) ;
#148 = CC_DESIGN_PERSON_AND_ORGANIZATION_ASSIGNMENT ( #69, #34, ( #93 ) ) ;
#149 = EDGE_CURVE ( 'NONE', #51, #92, #160, .T. ) ;
#150 = DIRECTION ( 'NONE',  ( -1.000000000000000000, 0.0000000000000000000, 0.0000000000000000000 ) ) ;
#151 = VERTEX_POINT ( 'NONE', #192 ) ;
#152 = AXIS2_PLACEMENT_3D ( 'NONE', #104, #30, #36 ) ;
#153 = DIRECTION ( 'NONE',  ( 0.0000000000000000000, 1.000000000000000000, 0.0000000000000000000 ) ) ;
#154 = DATE_AND_TIME ( #229, #175 ) ;
#155 = DIRECTION ( 'NONE',  ( 0.0000000000000000000, -1.000000000000000000, 0.0000000000000000000 ) ) ;
#156 = EDGE_LOOP ( 'NONE', ( #99, #231, #75, #205 ) ) ;
#157 = PRODUCT_DEFINITION_SHAPE ( 'NONE', 'NONE',  #54 ) ;
#158 = DIRECTION ( 'NONE',  ( -0.0000000000000000000, 0.0000000000000000000, 1.000000000000000000 ) ) ;
#159 = APPROVAL_PERSON_ORGANIZATION ( #202, #125, #6 ) ;
#160 = LINE ( 'NONE', #85, #208 ) ;
#161 = CARTESIAN_POINT ( 'NONE',  ( -17.50000000000000000, 17.50000000000000000, -0.5000000000000000000 ) ) ;
#162 = DATE_AND_TIME ( #167, #206 ) ;
#163 = COORDINATED_UNIVERSAL_TIME_OFFSET ( 5, 0, .BEHIND. ) ;
#164 = AXIS2_PLACEMENT_3D ( 'NONE', #234, #158, #83 ) ;
#165 = PERSON_AND_ORGANIZATION_ROLE ( 'design_supplier' ) ;
#166 = ORIENTED_EDGE ( 'NONE', *, *, #42, .F. ) ;
#167 = CALENDAR_DATE ( 2017, 10, 4 ) ;
#168 = LINE ( 'NONE', #11, #55 ) ;
#169 = LOCAL_TIME ( 13, 57, 41.00000000000000000, #131 ) ;
#170 = CARTESIAN_POINT ( 'NONE',  ( -17.50000000000000000, 17.50000000000000000, 0.5000000000000000000 ) ) ;
#171 = PERSON_AND_ORGANIZATION ( #187, #113 ) ;
#172 = CARTESIAN_POINT ( 'NONE',  ( 17.50000000000000000, 17.50000000000000000, -0.5000000000000000000 ) ) ;
#173 = SHAPE_DEFINITION_REPRESENTATION ( #157, #112 ) ;
#174 = PERSON_AND_ORGANIZATION ( #187, #113 ) ;
#175 = LOCAL_TIME ( 13, 57, 41.00000000000000000, #134 ) ;
#176 = VECTOR ( 'NONE', #201, 1000.000000000000000 ) ;
#177 = PLANE ( 'NONE',  #235 ) ;
#178 = CARTESIAN_POINT ( 'NONE',  ( -17.50000000000000000, 17.50000000000000000, 0.5000000000000000000 ) ) ;
#179 = LINE ( 'NONE', #118, #56 ) ;
#180 = APPROVAL_DATE_TIME ( #12, #32 ) ;
#181 = DIRECTION ( 'NONE',  ( -1.000000000000000000, -0.0000000000000000000, -0.0000000000000000000 ) ) ;
#182 = EDGE_CURVE ( 'NONE', #203, #92, #168, .T. ) ;
#183 = AXIS2_PLACEMENT_3D ( 'NONE', #78, #16, #117 ) ;
#184 = LINE ( 'NONE', #86, #53 ) ;
#185 = VECTOR ( 'NONE', #141, 1000.000000000000000 ) ;
#186 =( GEOMETRIC_REPRESENTATION_CONTEXT ( 3 ) GLOBAL_UNCERTAINTY_ASSIGNED_CONTEXT ( ( #37 ) ) GLOBAL_UNIT_ASSIGNED_CONTEXT ( ( #95, #61, #197 ) ) REPRESENTATION_CONTEXT ( 'NONE', 'WORKASPACE' ) );
#187 = PERSON ( 'UNSPECIFIED', 'UNSPECIFIED', 'UNSPECIFIED', ('UNSPECIFIED'), ('UNSPECIFIED'), ('UNSPECIFIED') ) ;
#188 = PERSON_AND_ORGANIZATION_ROLE ( 'design_owner' ) ;
#189 = AXIS2_PLACEMENT_3D ( 'NONE', #68, #153, #121 ) ;
#190 = CARTESIAN_POINT ( 'NONE',  ( 0.0000000000000000000, 0.0000000000000000000, -0.5000000000000000000 ) ) ;
#191 = APPROVAL ( #212, 'UNSPECIFIED' ) ;
#192 = CARTESIAN_POINT ( 'NONE',  ( -17.50000000000000000, 17.50000000000000000, 0.5000000000000000000 ) ) ;
#193 = CC_DESIGN_PERSON_AND_ORGANIZATION_ASSIGNMENT ( #195, #188, ( #108 ) ) ;
#194 = CALENDAR_DATE ( 2017, 10, 4 ) ;
#195 = PERSON_AND_ORGANIZATION ( #187, #113 ) ;
#196 = ORIENTED_EDGE ( 'NONE', *, *, #130, .F. ) ;
#197 =( NAMED_UNIT ( * ) SI_UNIT ( $, .STERADIAN. ) SOLID_ANGLE_UNIT ( ) );
#198 = FACE_OUTER_BOUND ( 'NONE', #13, .T. ) ;
#199 = CALENDAR_DATE ( 2017, 10, 4 ) ;
#200 = FACE_OUTER_BOUND ( 'NONE', #18, .T. ) ;
#201 = DIRECTION ( 'NONE',  ( -0.0000000000000000000, -0.0000000000000000000, -1.000000000000000000 ) ) ;
#202 = PERSON_AND_ORGANIZATION ( #187, #113 ) ;
#203 = VERTEX_POINT ( 'NONE', #27 ) ;
#204 = LINE ( 'NONE', #170, #106 ) ;
#205 = ORIENTED_EDGE ( 'NONE', *, *, #105, .T. ) ;
#206 = LOCAL_TIME ( 13, 57, 41.00000000000000000, #163 ) ;
#207 = FACE_OUTER_BOUND ( 'NONE', #156, .T. ) ;
#208 = VECTOR ( 'NONE', #8, 1000.000000000000000 ) ;
#209 = CC_DESIGN_DATE_AND_TIME_ASSIGNMENT ( #154, #23, ( #93 ) ) ;
#210 = ORIENTED_EDGE ( 'NONE', *, *, #227, .F. ) ;
#211 = DIRECTION ( 'NONE',  ( 1.000000000000000000, 0.0000000000000000000, 0.0000000000000000000 ) ) ;
#212 = APPROVAL_STATUS ( 'not_yet_approved' ) ;
#213 = EDGE_CURVE ( 'NONE', #151, #218, #136, .T. ) ;
#214 = DIRECTION ( 'NONE',  ( -0.0000000000000000000, 0.0000000000000000000, 1.000000000000000000 ) ) ;
#215 = EDGE_CURVE ( 'NONE', #51, #101, #15, .T. ) ;
#216 = ORIENTED_EDGE ( 'NONE', *, *, #219, .F. ) ;
#217 = EDGE_LOOP ( 'NONE', ( #142, #38, #224, #225 ) ) ;
#218 = VERTEX_POINT ( 'NONE', #58 ) ;
#219 = EDGE_CURVE ( 'NONE', #91, #203, #135, .T. ) ;
#220 = PERSON_AND_ORGANIZATION ( #187, #113 ) ;
#221 = ORIENTED_EDGE ( 'NONE', *, *, #182, .F. ) ;
#222 = EDGE_CURVE ( 'NONE', #101, #64, #21, .T. ) ;
#223 = ADVANCED_FACE ( 'NONE', ( #84 ), #110, .F. ) ;
#224 = ORIENTED_EDGE ( 'NONE', *, *, #105, .F. ) ;
#225 = ORIENTED_EDGE ( 'NONE', *, *, #42, .T. ) ;
#226 = COORDINATED_UNIVERSAL_TIME_OFFSET ( 5, 0, .BEHIND. ) ;
#227 = EDGE_CURVE ( 'NONE', #64, #91, #49, .T. ) ;
#228 = CARTESIAN_POINT ( 'NONE',  ( -17.50000000000000000, -17.50000000000000000, 0.5000000000000000000 ) ) ;
#229 = CALENDAR_DATE ( 2017, 10, 4 ) ;
#230 = ORIENTED_EDGE ( 'NONE', *, *, #213, .F. ) ;
#231 = ORIENTED_EDGE ( 'NONE', *, *, #126, .T. ) ;
#232 = CALENDAR_DATE ( 2017, 10, 4 ) ;
#233 = VECTOR ( 'NONE', #19, 1000.000000000000000 ) ;
#234 = CARTESIAN_POINT ( 'NONE',  ( 0.0000000000000000000, 0.0000000000000000000, 0.5000000000000000000 ) ) ;
#235 = AXIS2_PLACEMENT_3D ( 'NONE', #94, #48, #73 ) ;
#236 = EDGE_CURVE ( 'NONE', #92, #64, #184, .T. ) ;
#237 = ORIENTED_EDGE ( 'NONE', *, *, #227, .T. ) ;
ENDSEC;
END-ISO-10303-21;
